» » »

Hallow's Eve Tabs (ver.1)

Artists:  A B C D E F G H I J K L M N O P Q R S T U V W X Y Z # 

Hallow's Eve Tabs (ver.1)

Other
Rating:
0/5 (0 votes)

Hard to play? Try these video lessons and learn fast.
                			    Hallow's Eve - The Other

Tuning: Standar

pm = Palm Mute
XsY = Slide X note to Y note

Listen to the song to get the rhythm


Intro
e|-------------------------|
B|-------------------------|
G|---------------8-7-7-5-7-|
D|-7---5s7---7---8-7-7-5-7-| x2
A|-7---5s7---7---6-5-5-3-5-|
E|-5---3s5---5-------------|

Verse
e|---------------------------------------------|
B|---------------------------------------------|
G|-----------------------------------8-7-7-5-7-|
D|-7-7777777-5s7-7777777-5s7-7777777-8-7-7-5-7-| x2
A|-7-7777777-5s7-7777777-5s7-7777777-6-5-5-3-5-|
E|-5-5555555-3s5-5555555-3s5-5555555-----------|
pm   .......     .......     .......

Little ghouls in kid’s disguise invading halloween
no more candy no more fun
you are the main course in their feast

Pre-Chorus
e|-----------|
B|-----------|
G|-8-7-7-5-7-|
D|-8-7-7-5-7-| x4
A|-6-5-5-3-5-|
E|-----------|

Trick! It’s the hunger
Treat! Taste for human blood
Trick! Craving for human flesh

Verse
e|---------------------------------------------|
B|---------------------------------------------|
G|-----------------------------------8-7-7-5-7-|
D|-7-7777777-5s7-7777777-5s7-7777777-8-7-7-5-7-| x2
A|-7-7777777-5s7-7777777-5s7-7777777-6-5-5-3-5-|
E|-5-5555555-3s5-5555555-3s5-5555555-----------|
pm   .......     .......     .......

Give a finger and you might live give nothing and
you’ll die better serve them body parts
what you can spare and stay alive

Pre-Chorus
e|-----------|
B|-----------|
G|-8-7-7-5-7-|
D|-8-7-7-5-7-| x8
A|-6-5-5-3-5-|
E|-----------|

Trick! It’s the hunger
Treat! Taste for human blood
Trick! Craving for human flesh
Trick! It’s the hunger
Treat! Taste for human blood
Trick! Craving for human flesh

Chorus
e|---------------------------------------------------------|
B|---------------------------------------------------------|
G|---------------------------------------------------------|
D|-777777-555555-777777-777777-777777-555555-777777--5-5-5-| x2
A|-777777-555555-777777-777777-777777-555555-777777--5-5-5-|
E|-555555-333333-555555-555555-555555-333333-555555--3-3-3-|

Hallow's eve, Hallow's eve tonight
Hallow's eve, Hallow's eve tonight
Hallow's eve, Hallow's eve tonight
Hallow's eve, Hallow's eve tonight

Post-Chorus
e|-------------------------|
B|-------------------------|
G|---------------8-7-7-5-7-|
D|-7---5s7---7---8-7-7-5-7-| x2
A|-7---5s7---7---6-5-5-3-5-|
E|-5---3s5---5-------------|

Verse
e|---------------------------------------------|
B|---------------------------------------------|
G|-----------------------------------8-7-7-5-7-|
D|-7-7777777-5s7-7777777-5s7-7777777-8-7-7-5-7-| x2
A|-7-7777777-5s7-7777777-5s7-7777777-6-5-5-3-5-|
E|-5-5555555-3s5-5555555-3s5-5555555-----------|
pm   .......     .......     .......

Pre-Chorus
e|-----------|
B|-----------|
G|-8-7-7-5-7-|
D|-8-7-7-5-7-| x8
A|-6-5-5-3-5-|
E|-----------|

Trick! It’s the hunger
Treat! Taste for human blood
Trick! Craving for human flesh
Trick! It’s the hunger
Treat! Taste for human blood
Trick! Craving for human flesh

Chorus
e|---------------------------------------------------------|
B|---------------------------------------------------------|
G|----------------------777777-----------------------------|
D|-777777-555555-777777-777777-777777-555555-777777--5-5-5-| x2
A|-777777-555555-777777-555555-777777-555555-777777--5-5-5-|
E|-555555-333333-555555--------555555-333333-555555--3-3-3-|

Hallow's eve, Hallow's eve tonight
Hallow's eve, Hallow's eve tonight
Hallow's eve, Hallow's eve tonight
Hallow's eve, Hallow's eve tonight


Post-Chorus
e|-----------|
B|-----------|
G|-8-7-7-5-7-|
D|-8-7-7-5-7-| x4
A|-6-5-5-3-5-|
E|-----------|

Chorus
e|---------------------------------------------------------|
B|---------------------------------------------------------|
G|---------------------------------------------------------|
D|-777777-555555-777777-777777-777777-555555-777777--5-5-5-| x2
A|-777777-555555-777777-777777-777777-555555-777777--5-5-5-|
E|-555555-333333-555555-555555-555555-333333-555555--3-3-3-|

Hallow's eve, Hallow's eve tonight
Hallow's eve, Hallow's eve tonight
Hallow's eve, Hallow's eve tonight
Hallow's eve, Hallow's eve tonight
            
Hard to play? Try these video lessons and learn fast. | Correct




comments powered by Disqus
↑ Back to top | Tablatures and chords are parodies/interpretations of the original songs. You may use it for private study, scholarship, research or language learning purposes only