» » »

Osbourne Ozzy, Flying High Again Tabs (ver.2)

Artists:  A B C D E F G H I J K L M N O P Q R S T U V W X Y Z # 

Flying High Again Tabs (ver.2)

Osbourne Ozzy Tabs
 Rating:
4/5 (4 votes)
Flying High Again lessons Tabs too difficult? Try these video lessons and learn fast
1
                (Solo)

    p   p   p   p   p   p   p   p
E--12-9----12-9----12-9----12-9-------17-15-14-----------------------------
B------12-9----12-9----12-9----12-9-----------17-15-14---------------------
G-----------------------------------------------------16-14----------------
D----------------------------------------------------------17-16-14--------
A------------------------------------------------------------------17-16-14
E--------------------------------------------------------------------------

                                               h  p
E---------------------------------------------14-15-14---------------------
B-------------------------------------14-15-17------------17-17------------
G--------------------------------14-16-------------------------------------
D------------------------14-16-17------------------------------------------
A----------14-16-17-16-17--------------------------------------------------
E--17-15-17----------------------------------------------------------------

{-----------P.M.------------}   h    h     h
E--------------------------------------------------------------------------
B-----------------------------------14-15-14-15-(1415)trill----------------
G------------------------------14-16----------------------------16~~~------
D----------------------14--16----------------------------------------------
A-------14--16-14-17-16--17------------------------------------------------
E--17-15--17---------------------------------------------------------------


         p         p         p         p         p         p
E----10-14-10--10-14-10--10-14-10--10-15-10--10-14-10--10-15-10--10--------
B--12--------12--------12--------12--------12--------12--------12----------
G--------------------------------------------------------------------------
D--------------------------------------------------------------------------
A--------------------------------------------------------------------------
E--------------------------------------------------------------------------

                       (each tapping sequence is repeated)
     (1619trill)                  t   p   t   p   t   p   t   p
E-161916191619161916-16~----------17-12-9-17-12-9--17-12-9-17-12-9---------
B--------------------------------------------------------------------------
G--------------------------------------------------------------------------
D--------------------------------------------------------------------------
A--------------------------------------------------------------------------
E--------------------------------------------------------------------------


   t   p   t    p     t   p    t   p   t    p   t    p    t    p   t    p
E---------------------------------------------------------------------------
B--18-13-10-18-13-10--18-13-10-18-13-10-------------------------------------
G---------------------------------------19-14-11-19-14-11--19-14-11-19-14-11
D---------------------------------------------------------------------------
A---------------------------------------------------------------------------
E---------------------------------------------------------------------------

  (         play once                         )
  t    p   t    p    t    p   t    p   t   p    t   p  t   p   t   p  t   p
E-----------------------------------------------12-7-4-12-7-4--12-7-4-12-7-4
B---------------------------------------------------------------------------
G---------------------------------------------------------------------------
D--20-15-12-20-15-12--20-15-12-20-15-12-20-15-12----------------------------
A---------------------------------------------------------------------------
E---------------------------------------------------------------------------


 
 t   p  t   p   t   p  t   p     t   p  t   p   t   p  t   p
E---------------------------------------------------------------------------
B--13-8-5-13-8-5--13-8-5-13-8-5---------------------------------------------
G----------------------------------14-9-6-14-9-6--14-9-6-14-9-6-------------
D---------------------------------------------------------------------------
A---------------------------------------------------------------------------
E---------------------------------------------------------------------------


  t    p  t    p   t    p  t   p   t    p
E----------------------------------------------------------------------------
B----------------------------------------------------------------------------
G----------------------------------------------------------------------------
D--15-10-7-15-10-7--15-10-7-15-10-7-15-10-7----------------------------------
A----------------------------------------------------------------------------
E----------------------------------------------------------------------------
            
Submit corrections

comments powered by Disqus
↑ Back to top | Osbourne Ozzy Tabs for Flying High Again. Lyrics for acoustic guitar and electric guitar. 1 Tablatures and chords are parodies/interpretations of the original songs. You may use it for private study, scholarship, research or language learning purposes only