» » »

Punk Moda Funk Bass tabs (ver.1)

Artists:  A B C D E F G H I J K L M N O P Q R S T U V W X Y Z # 

Punk Moda Funk Bass tabs (ver.1)

Ornatos Violeta
Rating:
5/5 (1 vote)

Hard to play? Try these video lessons and learn fast.
                Ornatos Violeta - Punk Moda Funk - Cão 1997

Esta é a transcrição completa, espero que vos seja útil! A tonalidade da música é Mi menor.

This is the complete tab, hope you enjoy it! The key of song is in E minor.

Intro 
G|---------------------------------|-----|
D|---------------------------------|-----|
A|-------7-9-5----9h10p9-7--5h7---5|-----|
E|-0-7-9--------7---------------7--|-12\-|

G|---------------------------------|---|
D|---------------------------------|---|
A|-------7-9-5----9h10p9-7--5h7---5|-7-|
E|-0-7-9--------7---------------7--|---|


Verse                x3
G|--------------------|----------------|--------------------|
D|--------------------|------------7-5-|--------------------|
A|-7-5-7--7-7-7-7-4-5-|-7-5-7--7-7-----|-7-5-7--7-7-7-7-4-5-|
E|--------------------|----------------|--------------------|
                                                           x3
G|-------------------------------|-----|-------------------|----------------|
D|-------------------------------|-----|-------------------|----------------|
A|-7--7-7-6--6-6-5--5-5-6--5-6-7-|-----|-7-5-7-7-7-7-7-4-5-|-7-5-7-7-7-7-6-5|
E|-------------------------------|-12\-|-------------------|----------------|


Chorus
G|----------------------------|--------------------------------|
D|-------------------2--2-0-0-|-----------------4--------------|
A|------2-2-3--3-2-2----------|------2-2-3--3-2---2----4-5-6\7-|
E|-3--3-----------------------|-3--3-----------------5---------|


Break
G|---------------------------------|-----|
D|---------------------------------|-----|
A|-------7-9-5----9h10p9-7--5h7---5|-7-5-|
E|-0-7-9--------7---------------7--|-----|

G|---------------------------------|-----|
D|---------------------------------|-----|
A|-------7-9-5----9h10p9-7--5h7---5|-----|
E|-0-7-9--------7---------------7--|-12\-|


Verse                x5
G|--------------------|-------------------------------|
D|--------------------|-------------------------------|
A|-7-5-7--7-7-7-7-4-5-|-7--7-7-6--6-6-5--5-5-6--5-6-7-|
E|--------------------|-------------------------------|

G|--------------------|----------------|
D|--------------------|----------------|
A|-7-5-7--7-7-7-7-4-5-|-7-5-7-7-7-7-6-5|
E|--------------------|----------------|


Chorus
G|----------------------------|--------------------------------|
D|-------------------2--2-0-0-|-----------------4--------------|
A|------2-2-3--3-2-2----------|------2-2-3--3-2---2----4-5-6\7-|
E|-3--3-----------------------|-3--3-----------------5---------|

Bridge

Guitar Solo
G|----------------------------|--------------------------------|
D|-------------------2--2-0-0-|-----------------4--------------|
A|------2-2-3--3-2-2----------|------2-2-3--3-2---2----4-5-6\7-|
E|-3--3-----------------------|-3--3-----------------5---------|


Last Chorus
G|--------------|------------------------|---|
D|-----2--2-0-0-|-----------------4------|---|
A|-3-2----------|------2-2-3--3-2---2----|---|
E|--------------|-3--3-----------------5-|-7-|


Outro              x10
G|-------------------|
D|-------------------|
A|-7-5-7--7-7-7-7-4-5|
E|-------------------|
            
Hard to play? Try these video lessons and learn fast. | Correct




comments powered by Disqus
↑ Back to top | Tablatures and chords are parodies/interpretations of the original songs. You may use it for private study, scholarship, research or language learning purposes only