» » »

Talk Talk Talk Bass tabs (ver.1)

Artists:  A B C D E F G H I J K L M N O P Q R S T U V W X Y Z # 

Talk Talk Talk Bass tabs (ver.1)

Ordinary Boys
Rating:
1/5 (1 vote)

Hard to play? Try these video lessons and learn fast.
                Ok. Very sorry if this tab is cr*ppy. It's my first ever tab i've submitted on the web 
my apologies if its not correct at all.

Please e-mail me to tell me what you think


NOTE: I HAVE NOT DONE THE TIMINGS PROPERLY AS ITS AN EASY SONG TO JUST FIGURE OUT WHEN 
PARTS ARE PLAYED. THESE ARE JUST THE BASIC FRETS AND STRINGS YOU HAVE TO PLAY...

[Bass Intro]

G-|--------------------------------------|
D-|--------------------------------------| X 1
A-|-3-3-3-3-3-3-33333-3-3-3-3-3-3333-----|
E-|--------------------------------------|

[Verse]
"A healthy argument, to start the day..." (Note: 10's not 1,0's)
G-|--------------------------------------|
D-|--------------------------------------|
A-|-3-3-3-3-10-10-10-10-1-1-1-1-8-8-8-8--| X 1
E-|--------------------------------------|

"We chew the fat of life..."  (Note: exaggerate the 8's)
G-|--------------------------------------|
D-|--------------------------------------|
A-|-3-3-3-3-10-10-10-10-1-1-1-1-8-8--8-8-| X 1
E-|--------------------------------------|

"Too much small talk..."
G-|------------------------------------------------|
D-|------------------------------------------------|
A-|-7--7--7-----8--8--8----7--7--7----5--5--5--5-5-| X 1
E-|------------------------------------------------|

[Chorus] "Well hows the weather?.....Grey and Boring"
G-|---------------------------------|
D-|-----------------3-3-3-3-3-3-3-3-|
A-|-3-3-3-3-3-3-3-3-----------------| X 3
E-|---------------------------------|

"Frighten me, Enlighten me, Uh-Oh!"
G-|-------------------------|
D-|-------------------------|
A-|-3-3-3-3-1-1-1-1---------|X 1
E-|-----------------3-3-3-3-|

DUNNO WHAT THE BIT BEHIND THE SOLO IS BUT I ASSUME ITS THE SAME AS THE VERSE
[Pre Verse Intro]   (Note: 1,3 NOT 13!)
G-|-------------------------------------------|
D-|-------------------------------------------|
A-|-3-3-3-3-3-3333--1--13-3-3-3-3-3-3-3--1--1-|X 1
E-|-------------------------------------------|

[Verse]
"Opinions can be void if not..." (Note: 10's not 1,0's)
G-|--------------------------------------|
D-|--------------------------------------|
A-|-3-3-3-3-10-10-10-10-1-1-1-1-8-8-8-8--| X 1
E-|--------------------------------------|

"Too much small talk..."
G-|--------------------------------------------|
D-|--------------------------------------------|
A-|-7--7--7-----8--8--8----7--7--7----5--5--5--| X 1
E-|--------------------------------------------|

G-|----------|
D-|----------|
A-|-3-5-32-3-| X 1
E-|----------|

[Chorus] "Well hows the weather?.....Grey and Boring"
G-|---------------------------------|
D-|-----------------3-3-3-3-3-3-3-3-|
A-|-3-3-3-3-3-3-3-3-----------------| X 3
E-|---------------------------------|

"Frighten me, Enlighten me, Uh-Oh!"
G-|-------------------------|
D-|-------------------------|
A-|-3-3-3-3-1-1-1-1---------|X 1
E-|-----------------3-3-3-3-|

Bass is same as the guitar part at the end
            
Hard to play? Try these video lessons and learn fast. | Correct




comments powered by Disqus
↑ Back to top | Tablatures and chords are parodies/interpretations of the original songs. You may use it for private study, scholarship, research or language learning purposes only