» » »

Seaside Bass tabs (ver.1)

Artists:  A B C D E F G H I J K L M N O P Q R S T U V W X Y Z # 

Seaside Bass tabs (ver.1)

Ordinary Boys
Rating:
1/5 (1 vote)

Hard to play? Try these video lessons and learn fast.
                -------------------------------------------------------------------------------
			     Seaside - The Ordinary Boys
-------------------------------------------------------------------------------


Tuning: EADG

Intro

G|----13-11----------4h6-4h6--4~-11h13-11--------|
D|----------13-11------------------------13-11---|
A|-2~--------------------------------------------|
E|----------------0~---------------------------0~|

G|--------------------------------------------------3-4-6-4-3-|
D|---------1-2-1--4-2-1-1-------------------------------------|
A|-1-1-2--2-2---2------2--2-2-1------------------5h6----------|
E|------------------------------0-0-0-0-0-0-0-0-0-------------|

G|-----------------------------------------------|
D|--1-2-1--4-2-1-1-------------------------------|
A|-2-2---2------2--2-2-1-------------------------|
E|-----------------------0-0-0-0-0-0-0-0-0-0-0-0-|

Verse

G|------------------------------------------------|
D|------------------------------------------------|
A|1-1-2--2-2-2--2-2-2--2-2-2--2-0--0-0------------|
E|------------------------------------4-2-0-0-0-0-|

G|-------------------------------------------------------|
D|--4----------------------------------------------------|
A|---0-2-2--2-2-2--2-4-4--4-6-4-2-4--0-0-0---------------|
E|-2---------------------------------------4-2-0-0-0-0-0-|

G|--------------------------------------------------------------------|
D|-------------------------------------2-2-2-2-2-1-1--2-2-2-2-4-2-1-2-|
A|----------------------------------2-4-----------2-------------------|
E|-0-4-0-2-2-2-2-2-2-2-2-2-2-2-2-2-2----------------------------------|

G|-------------------------------------------------------|
D|-------------------------------------------------------|
A|-----------------------------------------------0-0-0-0-|
E|-2-2-2-2-2-2-2-2-2-2-2-2-2-2-2-2-3-3-3-3-3-3-3---------|

Chorus

G|---------------------------------------------------4-6-4-3-|
D|---------1-2-1--4-2-1-1---------------------------8--------|
A|-1-1-2--2-2---2------2--2-2-1------------------5h6---------|
E|------------------------------0-0-0-0-0-0-0-0-0------------|

G|---------------------------------------------------------|
D|---------1-2-1--4-2-1-1----------------------------------|
A|-1-1-2--2-2---2------2--2-2-1-------------------------1-1|
E|------------------------------0-0-0-0-0-0-0-0-0-0-0-0----|

G|-----------------------------------------------|
D|-----------------------------------------------|
A|-4-4-6-4-2-------------------------------------|
E|-----------0-0-0-2-4-0-2-2-2-2-2-2-2-2-2-2-2-2-|

Verse

G|------------------------------------------------|
D|------------------------------------------------|
A|1-1-2--2-2-2--2-2-2--2-2-2--2-0--0-0------------|
E|------------------------------------4-2-0-0-0-0-|

G|-----------------------------------------------------|
D|--4--------------------------------------------------|
A|---0-2-2--2-2-2--2-4-4--4-6-4-2-4--0-0-0-------------|
E|-2---------------------------------------4-2-0-0-0-0-|

G|--------------------------------------------------------------------|
D|-------------------------------------2-2-2-2-2-1-1--2-2-2-2-4-2-1-2-|
A|----------------------------------2-4-----------2-------------------|
E|-0-4-0-2-2-2-2-2-2-2-2-2-2-2-2-2-2----------------------------------|

G|-------------------------------------------------------|
D|-------------------------------------------------------|
A|-----------------------------------------------0-0-0-0-|
E|-2-2-2-2-2-2-2-2-2-2-2-2-2-2-2-2-3-3-3-3-3-3-3---------|

Chorus

G|---------------------------------------------------4-6-4-3-|
D|---------1-2-1--4-2-1-1---------------------------8--------|
A|-1-1-2--2-2---2------2--2-2-1------------------5h6---------|
E|------------------------------0-0-0-0-0-0-0-0-0------------|

G|---------------------------------------------------------|
D|---------1-2-1--4-2-1-1----------------------------------|
A|-1-1-2--2-2---2------2--2-2-1-------------------------1-1|
E|------------------------------0-0-0-0-0-0-0-0-0-0-0-0----|

G|-----------------------------------------------|
D|-----------------------------------------------|
A|-4-4-6-4-2-------------------------------------|
E|-----------0-0-0-2-4-0-2-2-2-2-2-2-2-2-2-2-2-2-|

Bridge

G|-----------------------------------------------------------|
D|--------------------------------------------2-------2------|
A|--------------1-2-2-2-2-4-2--------------------------------|
E|-4-4-4-4-4-2-4-------------4-2-0-0-0-0-0-0-0-0-0-0-0-0-2-2-|

G|-----------------------------------------------------------|
D|-----------------------------------------------------------|
A|--------------1-2-2-2-2-4-2----------------------------1-1-|
E|-4-4-4-4-4-2-4-------------4-2-0-0-0-0-0-0-0-0-0-0-0-0-----|

Final Chorus

G|-----------------------------------------------|
D|-----------------------------------------------|
A|-4-4-6-4-2-------------------------------------|
E|-----------0-0-0-2-4-0-2-2-2-2-2-2-2-2-2-2-2-2-|

G|---------------------------------------------------4-6-4-3-|
D|---------1-2-1--4-2-1-1---------------------------8--------|
A|-1-1-2--2-2---2------2--2-2-1------------------5h6---------|
E|------------------------------0-0-0-0-0-0-0-0-0------------|

G|---------------------------------------------------------|
D|---------1-2-1--4-2-1-1----------------------------------|
A|-1-1-2--2-2---2------2--2-2-1-------------------------1-1|
E|------------------------------0-0-0-0-0-0-0-0-0-0-0-0----|

G|-----------------------------------------------|
D|-----------------------------------------------|
A|-4-4-6-4-2-------------------------------------|
E|-----------0-0-0-2-4-0-2-2-2-2-2-2-2-2-2-2-2-2-|

G|-----------------------------------------------4-6-8-6-4~|
D|----------------------------------------------6----------|
A|-1-1--4-4-4h6h4------------------------------4-----------|
E|----------------0-0-0-2-4-0-2-2-2-2-2-2-2-2-2------------|


Not sure if it is perfect but thats the best i can do.
            
Hard to play? Try these video lessons and learn fast. | Correct




comments powered by Disqus
↑ Back to top | Tablatures and chords are parodies/interpretations of the original songs. You may use it for private study, scholarship, research or language learning purposes only