» » »

Nocturnal Autodrive Tabs (ver.1)

Artists:  A B C D E F G H I J K L M N O P Q R S T U V W X Y Z # 

Nocturnal Autodrive Tabs (ver.1)

Orbit
Rating:
0/5 (0 votes)

Hard to play? Try these video lessons and learn fast.
                #


Band: Orbit
Tuning: Standard


[Note: Please do not modify this tab without
 consulting me]
 This should be printed with a fixed font
 (I recommend using Notepad for Windows)


Notation Used:
  > = slide to note
  ^ = bend string
  x = mute string
  h = hammer on


INTRO/VERSE:
    B (x12)    D
E]--2----------5-5-5-5--5--5-5--5-5--5-5--5-5-5-----------|
B]--2----------5-5-5-5--5--5-5--5-5--5-5--5-5-5-----------|
G]--4----------7-7-7-7--7--7-7--7-7--7-7--7-7-7-----------|
D]--4----------7-7-7-7--7--7-7--7-7--7-7--7-7-7-----------|
A]--2----------5-5-5-5-----5-5-------5-5------------------|
E]--2----------5-5-5-5-----5-5-------5-5------------------|

CHORUS:
    B              D        A
E]--2-2-2-x-2-2----5-5-5----5-5-5-5---------------|
B]--2-2-2-x-2-2----5-5-5----5-5-5-5---------------|
G]--4-4-4-x-4-4----7-7-7----6-6-6-6---------------|
D]--4-4-4-x-4-4----7-7-7----7-7-7-7---------------|
A]--2-2-2-x-2-2----5-5-5----7-7-7-7---------------|
E]--2-2-2-x-2-2----5-5-5----5-5-5-5---------------|

BRIDGE: (3:00 into track)

E]-------------------------------------------------|
B]-------------------------------------------------|
G]--11-11-11-11---9---11---9-----------------------|
D]------------------------------12---11-11-11------|
A]-------------------------------------------------|
E]-------------------------------------------------|

RIFF A: (3:27 into track)

E]-------------------------------------------------|
B]-------------------------------------------------|
G]---14-h-16^-16^-16^-16^--------------------------|
D]-------------------------------------------------|
A]-------------------------------------------------|
E]-------------------------------------------------|

************************************************
----
Intro
Verse
Chorus
Verse
Chorus
Verse
Chorus
Bridge
Chorus
Riff A
Chorus


Lyrics:
------

(VERSE)
Push down the gas and I feel like the color of midnight
Night on the shield and wheels and I'm in for the ride
And no one, no, no one knows nothing
No one, no, no one knows sh*t
Feel the warmth and the warmth and the warmth and the warmth of the engine
The hum and the hum and the hum of the wheels
I could be, yeah I could be your lover
I could be, yeah I could be surreal

(CHORUS)
Just a kiss and I'll bet you'll see yeah
Just a kiss and I'll bet you'll see
Just a kiss and I'll bet you'll see yeah
Just a kiss, Just a kiss

(VERSE)
Sleep in feel and seal of the pusher of misery
Step in the car and I'll take you down for the ride
I don't want you, I don't want you mabey
You can't tell me how I really feel

(CHORUS)
Just a kiss, and I'll make you see yeah
Just a kiss it'll make you see
Just a kiss and I'll bet you'll see yeah
Just a kiss, Just a kiss

(VERSE)
I could drive you

(CHORUS)
Just a kiss, and I'll make you see yeah
Just a kiss it'll make you see
Just a kiss and I'll bet you'll see yeah
Just a kiss, Just a kiss

(BRIDGE)/(CHORUS)
She's just the sound of the motor, She's just the sound of the motor

(RIFF A)
I could drive you

(CHORUS)
Just a kiss and I'll bet you'll see yeah
Just a kiss, Just a kiss

Song written by Jeff Lowe Robbins.
            
Hard to play? Try these video lessons and learn fast. | Correct




comments powered by Disqus
↑ Back to top | Tablatures and chords are parodies/interpretations of the original songs. You may use it for private study, scholarship, research or language learning purposes only