>
 >
Bicycle Song

Bicycle Song Guitar Tabs

Orbit - Bicycle Song chords, tabs, tablatures, lyrics

Guitar lessons | Add/correct | Request | Top 50 tabs Artists:  A B C D E F G H I J K L M N O P Q R S T U V W X Y Z 0-9

Bicycle Song Guitar Tabs – Orbit

CD, Sheet music, Poster

Do you like Bicycle Song? Share with your friends now
TabsTabs v2
#


Bicycle Song--Orbit: Libido Speedway

            Eb5    B5    C#5    F#5    E5
Chords: e|------|------|------|------|------|
        B|------|------|------|------|------|
        G|--8---|------|--6---|--11--|--9---|
        D|--8---|--9---|--6---|--11--|--9---|
        A|--6---|--9---|--4---|--9---|--7---|
        E|------|--7---|------|------|------|
No distortion or band:

Intro:  Eb5  B5  x4

Verse 1:
Eb5    B5        Eb5    B5  Eb5   B5  Eb5   B5
Kelsea won't you come out to play
Eb5   B5  Eb5 B5    Eb5  B5  Eb5   B5
I got my bicycle today
Eb5       B5
My father bought it for me
He says it cost him money
he's got a man in China
Who says he get them cheaply
Its got a magic handle
Its got a chromed up fender
Its got a sprocket card and
Its got some super powers

Chorus:
C#5           B5
What a pretty bicycle she said
F#5   E5                        x2
I     want one just like that

Eb5   B5 x4 w/distortion and band

Amiri won't you hear my song
I make it up as I go along
Its about a man in China
Who's got a wife and family
He sells his stuff for money
To feed his starving family
They got them 15 babies
There's not a girl among them
He's got some super powers
He's got some super powers

Chorus 2:
What a pretty  song he said
I want one just like that
x2
What a pretty bicycle he said
I want one just like that

Solo:  chords  Eb5  B5
feedback:hold-------------------|
|---11~---|---------|-----------|
|---------|---------|-----------|
|---------|---------|-----------|
|---------|---------|-----------|
|---------|---------|-----------|
|---------|---------|-----------|
  1                3   4      1 & 2
|------------|------------|------------|
|------------|------------|------------|
|-8~---------|-----9~--8~-|(6)6\8------|
|------------|------------|-------8~---|
|------------|------------|------------|
|------------|------------|------------|
  1                3   4      1 & 2 3 4              do repeat x8
|------------|------------|-------------|-----------|------------|
|------------|------------|-------------|-----------|------------|
|-8~---------|-----9~--8~-|(6)6\8-------|-----------|o-----------|
|------------|------------|-------8-6---|-----------|o-8-8^------|
|------------|------------|-----------6~|-----6^--6^|-------6^-6^|
|------------|------------|-------------|-----------|------------|

|------------|
|------------|
|-----------o|
|8-8^-------o|
|------6^-6^-|
|------------|

Chorus 1

Verse 3: Bass and Drums only

Kelsea won't you come out tonight
Your body's burning just like mine
These are the things I brought you
These are the words I taught you
You've got a phony body
I want to touch so badly
I want to get so dirty
I want to give you money
I want to take your body
Tell me I know

Last Chorus:
Got a pretty song she said
I want one just like that  x4

C#5  B5  F#5  E5
Iii  Iii Iii  Iii

|-------|      |-----------|
|-------|      |-----------|
|7~7~7~-| %   %|--8~8~~----|  x2
|-------|      |-----------|
|-------|      |-----------|
|-------|      |-----------|
  1   2  3  4
|--------------|     |--11~----|
|--------------|     |---------|
|--7--4--5-----| x4  |---------| to the end
|-----------7--|     |---------|
|--------------|     |---------|
|--------------|     |---------|





Comments


Popular Orbit tabs & chords
Electric Bass Tabs
Over Bass Tabs
Gazer Chords
Made Of Wood Chords
Bicycle Song 1 Tabs
Made Of Wood Tabs
Medicine Tabs
Nocturnal Autodrive Tabs
Nocturnal Autodrive 1 Tabs
Rockets Tabs


Song lyrics



↑ Back to top | Tablatures and chords are parodies/interpretations of the original songs. You may use it for private study, scholarship, research or language learning purposes only
© 2014 AZChords.com Contact us | Privacy policy | DMCA | Add/correct tabs | Request tabs | Top 50 tabs