» » »

Pinoy Ako Tabs (ver.4)

Artists:  A B C D E F G H I J K L M N O P Q R S T U V W X Y Z # 

Pinoy Ako Tabs (ver.4)

Orange And Lemons
Rating:
4/5 (2 votes)

Hard to play? Try these video lessons and learn fast.
                Song Name   : PINOY AKO
Song Artist : ORANGE AND LEMONS
              Center for Industrial Technology & Enterprise(CITE)
 
                  Please Rate this..

            ----------------------------------
                      PINOY AKO
            ----------------------------------
               ( Pinoy Big Brother Theme/Soundtrack )

        This is my revise version..




Standard Tuning: EADGBE

[Intro] Guitar I
 
 Power Chords G


 e|-------10-------------10------------10------------10----------|
 B|-----10----10-------10---10------10----10-------10---10-------|
 G|---12------------12-----------12-------------12---------------|
 D|--------------------------------------------------------------|
 A|--------------------------------------------------------------|
 E|--------------------------------------------------------------|

 Power Chords D

 e|-------10-------------10------------10------------10----------|
 B|-----10----10-------10---10------10----10-------10---10-------|
 G|---11------------11-----------11-------------11---------------|
 D|--------------------------------------------------------------|
 A|--------------------------------------------------------------|
 E|--------------------------------------------------------------|
 
 Power Chords G


 e|-------10-------------10------------10------------10----------|
 B|-----10----10-------10---10------10----10-------10---10-------|
 G|---12------------12-----------12-------------12---------------|
 D|--------------------------------------------------------------|
 A|--------------------------------------------------------------|
 E|--------------------------------------------------------------|

 Power Chords D

 e|-------10-------------10------------10------------10----------|
 B|-----10----10-------10---10------10----10-------10---10-------|
 G|---11------------11-----------11-------------11---------------|
 D|--------------------------------------------------------------|
 A|--------------------------------------------------------------|
 E|--------------------------------------------------------------|

 


Bass:

                               A               D
 G|------------------------|------------------------------------------| 
 D|---------/5-4---5-4-----|------------------------------------------|
 A|----5-h7------5-----5---|---0--0-0-00--0-0-05--5-5-55--5-5-5...----|
 E|------------------------|------------------------------------------|
 


Guitar I


 Power Chords G


 e|-------10-------------10------------10------------10----------|
 B|-----10----10-------10---10------10----10-------10---10-------|
 G|---12------------12-----------12-------------12---------------|
 D|--------------------------------------------------------------|
 A|--------------------------------------------------------------|
 E|--------------------------------------------------------------|

 Power Chords D

 e|-------10-------------10------------10------------10----------|
 B|-----10----10-------10---10------10----10-------10---10-------|
 G|---11------------11-----------11-------------11---------------|
 D|--------------------------------------------------------------|
 A|--------------------------------------------------------------|
 E|--------------------------------------------------------------|
 
 Power Chords G


 e|-------10-------------10------------10------------10----------|
 B|-----10----10-------10---10------10----10-------10---10-------|
 G|---12------------12-----------12-------------12---------------|
 D|--------------------------------------------------------------|
 A|--------------------------------------------------------------|
 E|--------------------------------------------------------------|

 Power Chords D

 e|-------10-------------10------------10------------10----------|
 B|-----10----10-------10---10------10----10-------10---10-------|
 G|---11------------11-----------11-------------11---------------|
 D|--------------------------------------------------------------|
 A|--------------------------------------------------------------|
 E|--------------------------------------------------------------|
 

Guitar II.


 e|------14-----10h11--10---------------------------|
 B|----------------------------10----11-----12------|
 G|-----------------------------9----12-----13------| 
 D|-------------------------------------------------|
 A|-------------------------------------------------|
 E|-------------------------------------------------|


Verse I. Let the bass and drums do the first verse..

G|-----------------------------------------------| 
D|-----------------------------------------------|
A|---5--55---------------------------------------| Pa balik-balik 
E|-----------2---22----7----77-----3----33-------| sa verses


Lahat tayo mayroon pagkakaiba madalang makikita na
Ibat ibang kagustuhan ngunit iisang patutunguhan



  Fill in Guitar II.


 e|---------------------15~---14--13----13--15------|
 B|------10--11--12------------------14-------------|
 G|---9--9---12--13---------------------------------| 
 D|-------------------------------------------------|
 A|-------------------------------------------------|
 E|-------------------------------------------------|


 e|---15---15-------17-18-17-----15---14~------------|
 B|---14--------------------------------------------|
 G|-------------------------------------------------| 
 D|-------------------------------------------------|
 A|-------------------------------------------------|
 E|-------------------------------------------------|



Gabay at pagmamahal ang hanap ko
Pagbibigay ng halaga sa iyo
Nais mong ipakilala kung sino ka man talaga?


[Chorus]
  
 Guitar I.  

 D-F#m-Bm-Gm


 e|-----5555----2222----2222----3333--------|
 B|-----5555----2222----2222----3333--------|
 G|-----7777----2222----4444----3333--------|
 D|-----7777----4444----4444----5555--------|
 A|-----5555----4444----2222----3333--------|
 E|-------------2222------------------------|
 
 
Guitar II.
 
 D-F#m-Bm-Gm

 e|--10-----10------9---9----7---7---10-----10-----------|
 B|----10-----10-----9---9----7---7----10-----10---------|
 G|------10-----10----9---9----7---7-----12-----12-------| 
 D|------------------------------------------------------|
 A|------------------------------------------------------|
 E|------------------------------------------------------|

Pinoy ikaw pinoy
Ipakita sa mundo
Kung ano ang kaya mundo
Ibang-iba pinoy
Wag kang matatakot
Ipagmalaki mo pinoy ako
Pinoy tayo....


 
 last part: 
 Guitar II.


 e|-------------------------------------------------|
 B|-------------------------------------------------|
 G|---10/12--12--14--15--14--12h14--12--------------| 
 D|-------------------------------------------------|
 A|-------------------------------------------------|
 E|-------------------------------------------------|


Verse II.

G|-----------------------------------------------| 
D|-----------------------------------------------|
A|---5--55---------------------------------------| Pa balik-balik 
E|-----------2---22----7----77-----3----33-------| sa verses



 Guitar I.
 
            V       V        V       V         
 e|--------10-------2--------7-------3-------|
 B|--------10-------2--------7-------3-------|
 G|--------10-------2--------7-------3-------| 
 D|------------------------------------------|
 A|-----12--------4--------9-------5---------|
 E|--10---------2--------7-------3-----------|
     ^  ^       ^ ^      ^ ^     ^ ^          

Ipakita mo ang tunay at sino ka?
Mayroon masasama at maganda
Wala naman perpekto
Basta magpakatotoo oohh… oohh…



 e|-------------------------------|
 B|----------10----11-----12------|
 G|-----------9----12-----13------| 
 D|-------------------------------|
 A|-------------------------------|
 E|-------------------------------|


Gabay at pagmamahal ang hanap mo
Pagbibigay ng halaga sa iyo
Nais mong ipakilala.. 

    

 e|----33333333--------| Guitar II-->  |-------------------------|
 B|----33333333--------|               |-------------------------|   
 G|----33333333--------|               |-------------------------|
 D|----55555555--------|               |--5-5--7-8-7--5h7--5-----|       
 A|----55555555--------|               |-------------------------| 
 E|----33333333--------|               |-------------------------|  

          Kung... sino.. Ka.. man... talaga..


[Repeat Chorus]


Bridge:


      Distortion: Guitar II
         
         A     G     A     G      

 e|------5-----3-----5-----3---|
 B|------5-----3-----5-----3---|
 G|------6-----4-----6-----4---| 
 D|------7-----5-----7-----5---|
 A|------7-----5-----7-----5---|
 E|------5-----3-----5-----3---|


Talagang ganyan ang buhay
Dapat ka nang masanay
Wala rin mangyayari
Kung laging nakikibagay




          A   G       A    G      

 e|------5-----3-----5-----3---|
 B|------5-----3-----5-----3---|
 G|------6-----4-----6-----4---| 
 D|------7-----5-----7-----5---|
 A|------7-----5-----7-----5---|
 E|------5-----3-----5-----3---|


Ipakilala ang iyong sarili
Ano man sa iyo mangyayari
Ang lagi mong iisipin
Kayang kayang gawin


[Repeat Chorus]

 last part: 
 Guitar II.


 e|-------------------------------------------------|
 B|-------------------------------------------------|
 G|---10/12--12--14--15--14--12h14--12--------------| 
 D|-------------------------------------------------|
 A|-------------------------------------------------|
 E|-------------------------------------------------|


[Outro]

 
 Power Chords G


 e|-------10-------------10------------10------------10----------|
 B|-----10----10-------10---10------10----10-------10---10-------|
 G|---12------------12-----------12-------------12---------------|
 D|--------------------------------------------------------------|
 A|--------------------------------------------------------------|
 E|--------------------------------------------------------------|

 Power Chords D

 e|-------10-------------10------------10------------10----------|
 B|-----10----10-------10---10------10----10-------10---10-------|
 G|---11------------11-----------11-------------11---------------|
 D|--------------------------------------------------------------|
 A|--------------------------------------------------------------|
 E|--------------------------------------------------------------|
 
 Power Chords G 

 This part is fading........


 e|-------10-------------10------------10------------10----------|
 B|-----10----10-------10---10------10----10-------10---10-------|
 G|---12------------12-----------12-------------12---------------|
 D|--------------------------------------------------------------|
 A|--------------------------------------------------------------|
 E|--------------------------------------------------------------|

 Power Chords D

 e|-------10-------------10------------10------------10----------|
 B|-----10----10-------10---10------10----10-------10---10-------|
 G|---11------------11-----------11-------------11---------------|
 D|--------------------------------------------------------------|
 A|--------------------------------------------------------------|
 E|--------------------------------------------------------------|


Legend:

h = hammer
~ = bend
/ = slide
^ = upstroke
V = downstroke



Please Rate Thanks!!
            
Hard to play? Try these video lessons and learn fast. | Correct




comments powered by Disqus
↑ Back to top | Tablatures and chords are parodies/interpretations of the original songs. You may use it for private study, scholarship, research or language learning purposes only