» » »

Let Me Tabs (ver.2)

Artists:  A B C D E F G H I J K L M N O P Q R S T U V W X Y Z # 

Let Me Tabs (ver.2)

Orange And Lemons
Rating:
0/5 (0 votes)

Hard to play? Try these video lessons and learn fast.
                -------------------------------------------------------------------------------
-------------------------------------------------------------------------------

is questions just e mail me! thnx!

   This is my second time to submit a tab, this is not 100% xur! so i hope you enjoy! 
kapa ra nako ni!"

Tuning:normal

intro: 4x
e|---------------------------------------------------------------------------|
B|------2----2---------------2-----2-----------------------------------------|
G|----2----2---2----------2-----2-----2--------------------------------------|
D|---2---2---2---------0-----0-----0-----------------------------------------|
A|---------------------------------------------------------------------------|
E|---------------------------------------------------------------------------|
     "love"       "ou turn my head....."

refrain:
e|--------------------------------------------------3------------------------|
B|----------2--------------2------------0--------------2---------------------|
G|-------2----2----------2---2--------1----------2-------2-------------------|
D|-------------------------------------------0-------------------------------|
A|---0-----------------------------------------------------------------------|
E|------------------2-------------0------------------------------------------|

e|------------------------------------------------3--------------------------|
B|--------2--------------2---------------------------2-----------------------|
G|------2---2----------2---2----------6---------2------2---------------------|
D|---------------------------------6---------0-------------------------------|
A|--0---------------------------4--------------------------------------------|
E|-----------------2---------------------------------------------------------|


| /  slide up
| \  slide down
| h  hammer-on
| p  pull-off
| ~  vibrato
| +  harmonic
| x  Mute note
===============================================================================
            
Hard to play? Try these video lessons and learn fast. | Correct




comments powered by Disqus
↑ Back to top | Tablatures and chords are parodies/interpretations of the original songs. You may use it for private study, scholarship, research or language learning purposes only