» » »

Heaven Knows This Angel Has Flown Tabs (ver.1)

Artists:  A B C D E F G H I J K L M N O P Q R S T U V W X Y Z # 

Heaven Knows This Angel Has Flown Tabs (ver.1)

Orange And Lemons
Rating:
5/5 (2 votes)

Tabs too difficult? Try these video lessons and learn fast.
                -----------------------------------------------------------------------------
                                        Heaven Knows - Orange and Lemons
-----------------------------------------------------------------------------



Piano Intro:
e|-2-4-2---2---|-4-7-7/9-7-4-2-|
B|-2-----2-2---|-4-------4-4-2-|
G|-2-------2---|-4-------4-4-2-|
D|-------------|---------------|
A|-------------|---------------|
E|-------------|---------------|


Intro:
Gtr I

E-A2 x4

Gtr II
e|-------4-4---|-------------|\
B|-2/4-------4-|-2-----------| \
G|-----4-------|-------------|  \   2
D|-------------|-------------|  / times
A|-------------|-------------| /
E|-------------|-------------|/

e|-------4-4---|-------------|---------7---|---------5---|
B|-2/4-------4-|-2-0-2-------|-------5-----|-------5-----|
G|-----4-------|-------------|-4h6p4-------|-4h6p4-------|
D|-------------|-------------|-------------|-------------|
A|-------------|-------------|-------------|-------------|
E|-------------|-------------|-------------|-------------|


Verse:
Gtr I

E-A2  x4

There are times when I'm lying in my bed
how I bellow and cry from this stupid game
and my eyes are like windshields on a rainy day
almost rubbed-down, swelling as I keep on



Gtr I
G#m-A-G#m-F#m-E

Digging my face in these cold hands of mine
Heaven knows how embittered I am



Chorus:
Gtr I

A-G#m-F#m-E

Gtr II
e|---4-5-4-7---|---4-5-4-7---|---4-5-4-7---|-4-5-4-7/9-7-|
B|-------------|-------------|-------------|-------------|
G|-------------|-------------|-------------|-------------|
D|-------------|-------------|-------------|-------------|
A|-------------|-------------|-------------|-------------|
E|-------------|-------------|-------------|-------------|
     flown..         me..       drunken..      ..ery..

'Cause this angel has flown away from me
leaving me in drunken misery



Gtr I

A-G#m-F#m-E

Gtr II
e|---9-12-11--|--11-14-12-|---9-12-11--|---9-12-11--|
B|--10-10-10--|--12-12-12-|---9-12-11--|---9-12-11--|
G|------------|-----------|------------|------------|
D|------------|-----------|------------|------------|
A|------------|-----------|------------|------------|
E|------------|-----------|------------|------------|   
    clipped..     made..       all..      ..ty..

i should have clipped her wings
and made her mine for all eternity



Gtr I

A-G#m-F#m-E

Gtr II
e|---4-5-4-7---|---4-5-4-7---|---4-5-4-7---|-4-5-4-7/9-7-|
B|-------------|-------------|-------------|-------------|
G|-------------|-------------|-------------|-------------|
D|-------------|-------------|-------------|-------------|
A|-------------|-------------|-------------|-------------|
E|-------------|-------------|-------------|-------------|
     flown..         me..      strength..       free..

now this angel has flown away from me
thought I had the strength to set her free



Gtr I

A-G#m-F#m-F#m-Am-Am

Gtr II
e|---9-12-11--|--11-14-12-|-14-------14-------|-14-------14-------|
B|--10-10-10--|--12-12-12-|----14-------14----|----14-------14----|
G|------------|-----------|-------14-------14-|-------14-------14-|
D|------------|-----------|-------------------|-------------------|
A|------------|-----------|-------------------|-------------------|
E|------------|-----------|-------------------|-------------------|  
     did..         love..          will..             find..      

e|-17-------17-------|-17-------17-------|
B|----17-------17----|----17-------17----|
G|-------17-------17-|-------17-------17-|
D|-------------------|-------------------|
A|-------------------|-------------------|
E|-------------------|-------------------|
      home..         me..

i did what I did because I love her so
will she ever find her way back home to me, ahh..




Gtr I

E-A2 x2

Gtr II
e|-------------|-------------|---------7---|---------5---|
B|---2/4-2-2-2-|-2-0-2-------|-------5-----|-------5-----|
G|-------------|-------------|-4h6p4-------|-4h6p4-------|
D|-------------|-------------|-------------|-------------|
A|-------------|-------------|-------------|-------------|
E|-------------|-------------|-------------|-------------|



Verse:
Gtr I

E-A2 x2

Iím so tired, I feel like catching forty-winks
being up all night in this elbow-room that


Gtr I

Am-E-A2-E-A2     

puts me in a trance
where hopes and dreams come true

Gtr I

E-A2 x2

now, my lips are burning and my 
eyes are hurting

Gtr I

G#m-A-G#m-A-G#m-F#m-E

just to pass my time, oh, heaven knows how embittered I am

Repeat Chorus

Ending:(one stroke each)
G#m F#m A E


Legend:
| /  slide up
| \  slide down
| h  hammer-on
| p  pull-off
| ~  vibrato
| +  harmonic
| x  Mute note
===============================================================================
            
Tabs too difficult? Try these video lessons and learn fast.




comments powered by Disqus
↑ Back to top | Tablatures and chords are parodies/interpretations of the original songs. You may use it for private study, scholarship, research or language learning purposes only