» » »

Orange And Lemons, Hanggang Kailan Tabs (ver.2)

Artists:  A B C D E F G H I J K L M N O P Q R S T U V W X Y Z # 

Hanggang Kailan Tabs (ver.2)

Orange And Lemons Tabs
 Rating:
4/5 (4 votes)
Hanggang Kailan lessons Tabs too difficult? Try these video lessons and learn fast
                


ABZD rocks! FLipside rocks! Three suicide kings rocks!
SHAron ROCKS!

========
=INTRO:=
========
  EbM7		F		G     G-5       G     G-5	
|--6----------|--1-----------|--3-----3------|--3-----3------|
|--8----------|--1-----------|--3-----2------|--3-----2------| 
|--7----------|--2-----------|--0-----0------|--0-----0------|  
|--8----------|--3-----------|--0-----0------|--0-----0------|  
|--6----------|--3-----------|--x-----x------|--x-----x------| 
|--x----------|--1-----------|--3-----3------|--3-----3------|
   
  EbM7		F		G     G-5       G/F (break)   
|--6----------|--1-----------|--3-----3------|--3------------|
|--8----------|--1-----------|--3-----2------|--0------------|
|--7----------|--2-----------|--0-----0------|--0------------|
|--8----------|--3-----------|--0-----0------|--0------------|
|--6----------|--3-----------|--x-----x------|--x------------|
|--x----------|--1-----------|--3-----3------|--1------------|
                                                                              
========
=VERSE:=
========
       CM7      Cm7             G		G/F (break)
|-------3-----|--3-----------|--3------------|--3------------|
|-------5-----|--4-----------|--3------------|--0------------|
|-------4-----|--3-----------|--0------------|--0------------|
|-------5-----|--5-----------|--0------------|--0------------|
|-------3-----|--3-----------|--x------------|--x------------|
|-------x-----|--x-----------|--3------------|--1------------|
labis na...     nayayamot..   saglit....                                          

                            
	CM7      Cm7		G		G/F     G7
|-------3-----|--3-----------|--3------------|--3-------1----|
|-------5-----|--4-----------|--3------------|--0-------0----|
|-------4-----|--3-----------|--0------------|--0-------0----|
|-------5-----|--5-----------|--0------------|--0-------0----|
|-------3-----|--3-----------|--x------------|--x-------2----|
|-------x-----|--x-----------|--3------------|--1-------3----|
kapag naalala..  akong magawa..                                                   

                           
==================
=PRE-CHORUS LICK:=
==================
   Am7				      Cm7
|-----5-----7-----8-----8---7-5--|-------------7------10------8---7h8-7--|
|--5-----5-----5-----5-----------|------8--------------------------------|
|--------------------------------|---------------------------------------|
|--------------------------------|--10-----10-----10------10-------------|
|--------------------------------|---------------------------------------|
|--------------------------------|---------------------------------------|
   Umuwi ka na baby....		    ....ako sanay na wala ka...                   

                G                    Bbdim		    E         E7          

                  
|--------7-----|--------7---|--7--7--7--7--7---------|
|-----8-----8--|-----8------|-----------------8/12---|
|--7-----------|--8---------|------------------------|
|--------------|------------|------------------------|
|--------------|------------|------------------------|
|--------------|------------|------------------------|
 mahirap ang mag-isa....                                                          

                   
   Am			EbM7      F
|--0-----------------|--6---------1------|
|--1-----------------|--8---------1------|
|--2-----------------|--7---------2------|
|--2-----------------|--8---------3------|
|--0-----------------|--6---------3------|
|--x-----------------|--x---------1------|
At sa gabi'y hinahanap-hanap kita....                                             

              


==============                   
=CHORUS LICK:=
==============
   chorus chords: 
	CM7/G - G
	CM7/G - G-G/F-G7
	CM7/G - G
	CM7/G - EbM7-F-G-G/F
	
	
|----7---7---10---8--7h8p8---|\
|--8---8---8----8------------| \
|----------------------------|  \ repeat a few time during the chorus
|----------------------------|  /
|----------------------------| /
|----------------------------|/

=======
=CODA:=	
=======

 EbM7 - F - G - G-5 - G - G-5
	 EbM7 - Fbreak, Gbreak

==================
=OUTRO PIANO RIFF=
==================

|-7-7--5-5--8-8--7-7--10-10--7-7--5-5--5-6--|
|-------------------------------------------|
|-------------------------------------------|
|-------------------------------------------|  



|-7-7--5-5--8-8--7-7--10-10--8-8--12-12--7-5-3-|
|----------------------------------------------|
|----------------------------------------------|
|----------------------------------------------|





+++++++++++++++
++C H O R D S++
+++++++++++++++

Intro: EbM7 - F - G - G-5 - G - G-5 
     	EbM7 - F - G - G-5 - G/Fbreak 


        G7   CM7
Labis na naiinip
           Cm7		     G - G/Fbreak
Nayayamot sa bawat saglit
            G7  CM7
Kapag naaalala ka
           Cm7                   
Wala naman akong 
         G - G/F - G7break
magawa


Refrain:
		Am7
Umuwi ka na baby
                Cm7
Hindi na ako sanay ng wala ka
      G    Bdim        E - E7 
Mahirap ang mag-isa
             Am 
At sa gabi'y hinahanap-hanap 
   EbM7 - F 
kita...


Chorus:
       CM7/G			    G
Hanggang kailan ako maghihintay
                           CM7/G
Na makasama ka muli
			     G        G/F
Sa buhay kong puno ng paghihirap
 G7   CM7/G  
Na tanging ikaw lang ang 
            G      
Pumapawi sa mga luha 
        CM7          EbM7   
At naglalagay ng ngiti 
      F - G - G/Fbreak
sa mga labi

	           G7     CM7
'Di mapigilang mag-isip
                  Cm7
Na baka sa tagal
                 	                G - G/Fbreak
Mahulog ang loob mo sa iba
         G7-CM7              Cm7
Nakakabalisa, knock on wood
                      G - G/F - G7break
'Wag naman sana

(Repeat Refrain & Chorus except last word)

 G      G7
labi....


CM7/G
Umuwi ka na baby....
		 G
Umuwi ka na baby....
		CM7/G - G - G/F - G7
Umuwi ka na baby....
           CM7/G
Umuwi ka na baby....
		 G
Umuwi ka na baby....
		CM7/G - G - G/F - G7
Umuwi ka na baby....

Coda:	 EbM7 - F - G - G-5 - G - G-5
	 EbM7 - Fbreak, Gbreak

========
==END.==
========
            
Submit corrections

comments powered by Disqus
↑ Back to top | Orange And Lemons Tabs for Hanggang Kailan. Lyrics for acoustic guitar and electric guitar. Tablatures and chords are parodies/interpretations of the original songs. You may use it for private study, scholarship, research or language learning purposes only