» » »

Thickest Glass Tabs (ver.1)

Artists:  A B C D E F G H I J K L M N O P Q R S T U V W X Y Z # 

Thickest Glass Tabs (ver.1)

Orange 9mm
Rating:
0/5 (0 votes)

Hard to play? Try these video lessons and learn fast.
                #------------------------------------------------------------------------------##


Thickest Glass  by Orange 9mm
                from the album "Driver (Not Included)"
                words and music by Chaka Malik, Chris Traynor,
                    Matthew Cross, and Davide Gentile
 
Dropped-D Tuning (DADGBE)
 
INTRO
E ------------------------------------------------------------------------
B ------------------------------------------------------------------------
G -7--7-7-7--7--7-7-7--7--7-7-5-/-12--12-12-12--12--12-12-12--12--12-12-12
D ------------------------------------------------------------------------
A -5--5-5-5--5--5-5-5--5--5-5-5-/-10--10-10-10--10--10-10-10--10--10-10-10
D ------------------------------------------------------------------------
 
VERSE
E --------------------------------------------------
B --------------------------------------------------
G --------8\7-7-----------3/5-5-5-------------------
D --------8\7-7-----------3/5-5-5-------------------
A -0-0-0--6\5-5--3/5-5-5--1/3-3-3-------------------
D -0-0-0---------3/5-5-5----------------------------
 
CHORUS
E --------------------------------------------------
B --------------------------------------------------
G -7-7-7-7\3-3-3-3/5-5-5-5--------------------------
D -7-7-7-7\3-3-3-3/5-5-5-5--------------------------
A -5-5-5-5\1-1-1-1/3-3-3-3-3/5-5-5------------------
D -------------------------3/5-5-5------------------
 
BRIDGE 1
E --------------------------------------------------
B --------------------------------------------------
G -7-7-7-7-7-7--x-x-x-x-----------------------------
D -7-7-7-7-7-7--x-x-x-x-----------------------------
A -5-5-5-5-5-5--x-x-x-x-----------------------------
D --------------------------------------------------
 
BRIDGE 2
E -------------7^---|---------------10^-------------
B -------------7^---|---------------10^-------------
G -7-7-7-7-7--------|---7-7-7-7-7-------------------
D -7-7-7-7-7--------|---7-7-7-7-7-------------------
A -5-5-5-5-5--------|---5-5-5-5-5-------------------
D -0-0-0-0-0--------|---0-0-0-0-0-------------------
 
BRIDGE 3
E --------------------------------------------------
B --------------------------------------------------
G -14--14-14-14-14---10-11-12-----------------------
D --------------------------------------------------
A -12--12-12-12-12---8--9--10-----------------------
D --------------------------------------------------
            
Hard to play? Try these video lessons and learn fast. | Correct




comments powered by Disqus
↑ Back to top | Tablatures and chords are parodies/interpretations of the original songs. You may use it for private study, scholarship, research or language learning purposes only