» » »

Glistening Tabs (ver.2)

Artists:  A B C D E F G H I J K L M N O P Q R S T U V W X Y Z # 

Glistening Tabs (ver.2)

Orange 9mm
Rating:
0/5 (0 votes)

Hard to play? Try these video lessons and learn fast.
                Glistening      by Orange 9mm
                from the album "Driver (Not Included)"
                words and music by Chaka Malik, Chris Traynor,
                        Matthew Cross and Davide Gentile
 
Dropped-D Tuning (DADGBE)
 
INTRO
E ---------------------------------------------
B ---------------------------------------------
G -------------------------5-5-6-6-------------
D -------------------------5-5-6-6-------------
A -0-0-0-3-3-3-5-5-5-6-6-6-3-3-4-4-------------
D -0-0-0-3-3-3-5-5-5-6-6-6---------------------
 
VERSE
E ---------------------------------------------
B ---------------------------------------------
G ---------------------------------------------
D ---------------------------------------------
A -0---3-----3-3p0-3---0---3-------------------
D -0---3-----3-3p0-3---0---3-------------------
 
CHORUS
E ---------------------------------------------
B ---------------------------------------------
G -7--------------------5/7--------------------
D -7--------------------5/7--------------------
A -5-0--0-3-0-6-5-0-3-0-3/5--------------------
D ---0--0-3-0-6-5-0-3-0------------------------
 
BRIDGE (w/wah)
E ---------------------------------------------
B ---------------------------------------------
G -7-7-7-7-7---12^----7-7-7-7-7---9------------
D ---------------------------------------------
A -5-5-5-5-5---10^----5-5-5-5-5---7------------
D ---------------------------------------------
 
Another guitar plays an F5 chord (33xxxx) underneath bridge.
            
Hard to play? Try these video lessons and learn fast. | Correct




comments powered by Disqus
↑ Back to top | Tablatures and chords are parodies/interpretations of the original songs. You may use it for private study, scholarship, research or language learning purposes only