» » »

Orange 9mm, Failure Bass tabs (ver.1)

Artists:  A B C D E F G H I J K L M N O P Q R S T U V W X Y Z # 

Failure Bass tabs (ver.1)

Orange 9mm Tabs
 Rating:
4/5 (4 votes)
Failure lessons Tabs too difficult? Try these video lessons and learn fast
                Orange 9mm



This one's pretty simple but it's a good tune.

Tune to D.


intro/verse (intro played quietly):
G-----------------------------------------------------------------
D-----------------------------------------------------------------
A-------------------0---5-5-3---3-------------0-------------------
D-0---0-------0-3-5------------------0-3-5--------5---0---0-------

chorus:
G-----------------------------------------------------------------
D-----------------------------------------------------------------
A-----------------------------------------------------------------
D-5---5-5---5-5-5-3---3-3---3-3-3-1---1-1-1-1-1-1-1-1-1-1-1-1-1-1-

solo or bridge or whatever you want to call it:
G-----------------------------------------------------------------
D-----------------------------------------------------------------
A-7---7-------------0---7---5---5-------------0-------7---7-------
D-------------0-3-5------------------0-3-5--------5---------------

That's pretty much it.  Listen to the song to get the timing down.
            
Submit corrections

comments powered by Disqus
↑ Back to top | Orange 9mm Bass for Failure. Lyrics for acoustic guitar and electric guitar. Tablatures and chords are parodies/interpretations of the original songs. You may use it for private study, scholarship, research or language learning purposes only