>
 >
Ping Pong Song

Ping Pong Song Guitar Tabs

Optimus Rhyme - Ping Pong Song chords, tabs, tablatures, lyrics

Guitar lessons | Add/correct | Request | Top 50 tabs Artists:  A B C D E F G H I J K L M N O P Q R S T U V W X Y Z 0-9

Ping Pong Song Guitar Tabs – Optimus Rhyme

CD, Sheet music, Poster

Do you like Ping Pong Song? Share with your friends now
Tabs
--Song: Ping Pong Song
---Tab: #6



All guitars in standard tuning.

~~~~~~

Verse

Sippin' Perrier, playing ping pong...
1st:-----------------------------------------------------|
2nd:---10-9-10------10-9-10------10-9-10------10-9-10----|
3rd:-9---------9--9---------9--8---------8--8---------8--|
4th:-----------------------------------------------------|
5th:-----------------------------------------------------|
6th:-----------------------------------------------------| x2

With the P-I-N-G
1st:-----------------|
2nd:-10--10--10--10--|
3rd:-9---9---9---9---|
4th:-10--10--10--10--|
5th:-----------------|
6th:-----------------|

Volley for the serve...
1st:---------------------------|
2nd:---10-9-10------10-9-10----|
3rd:-8---------8--8---------8--|
4th:---------------------------|
5th:---------------------------|
6th:---------------------------|

See we got these regulations...
1st:-----------------------------------------------------|
2nd:---10-9-10------10-9-10------10-9-10------10-9-10----|
3rd:-9---------9--9---------9--8---------8--8---------8--|
4th:-----------------------------------------------------|
5th:-----------------------------------------------------|
6th:-----------------------------------------------------| x3

Chorus

It's on, the day starts...
1st:-0----0----0--1-0--|
2nd:-1----0----0--3-1--|
3rd:-2----1----1--2-2--|
4th:-2----2----2--0-2--|
5th:-0----2----2----0--|
6th:------0----0-------| x3

Every last ball on the court...
1st:-0----0----0-|
2nd:-1----0----0-|
3rd:-2----1----1-|
4th:-2----2----2-|
5th:-0----2----2-|
6th:------0----0-|
(Some strumming not indicated)

Verse 2

Demand from my sponsors...
1st:-----------------------------------------------------|
2nd:---10-9-10------10-9-10------10-9-10------10-9-10----|
3rd:-9---------9--9---------9--8---------8--8---------8--|
4th:-----------------------------------------------------|
5th:-----------------------------------------------------|
6th:-----------------------------------------------------| x2

Bridge

1st:--------------------------------------------------------------|
2nd:--------------------------------------------------------------|
3rd:---------9-------10--9----9--7-------------9------------------|
4th:-7--9-10----10-7-------10------9---7--9-10----10-7-9-----9-7--|
5th:------------------------------------------------------7-------|
6th:--------------------------------------------------------------| x2

Verse 3

They challenged me to a sanctioned event...

Yeah love, 0-6
1st:-------------|
2nd:---------10--|
3rd:-8---7-9-----|
4th:---9---------|
5th:-------------|
6th:-------------|

Topspin smashes stop them dead in their tracks...
1st:-----------------------------------------------------|
2nd:---10-9-10------10-9-10------10-9-10------10-9-10----|
3rd:-9---------9--9---------9--8---------8--8---------8--|
4th:-----------------------------------------------------|
5th:-----------------------------------------------------|
6th:-----------------------------------------------------|

                            this backhand    Backhand again
1st:-----------------------------------------------------|
2nd:---10-9-10------10-9-10-------------10---------10----|
3rd:-9---------9--9---------9---------8---------------8--|
4th:-----------------------------------------------------|
5th:-----------------------------------------------------|
6th:-----------------------------------------------------|

Forehand no return, practice my spin...
1st:-----------------------------------------------------|
2nd:---10-9-10------10-9-10------10-9-10------10-9-10----|
3rd:-9---------9--9---------9--8---------8--8---------8--|
4th:-----------------------------------------------------|
5th:-----------------------------------------------------|
6th:-----------------------------------------------------| x2

I'm in Japan learning secret paddle positions...
1st:------------------------------------|
2nd:---10-9-10------10-9-10-------10-10-|
3rd:-9---------9--9---------9---8-------|
4th:------------------------------------|
5th:------------------------------------|
6th:------------------------------------|

Chorus

I eat with my fingers...
1st:-0----0----0--1-0--|
2nd:-1----0----0--3-1--|
3rd:-2----1----1--2-2--|
4th:-2----2----2--0-2--|
5th:-0----2----2----0--|
6th:------0----0-------| x3

I'm happy as long as...
1st:-0----0----0-|
2nd:-1----0----0-|
3rd:-2----1----1-|
4th:-2----2----2-|
5th:-0----2----2-|
6th:------0----0-|

Verse 4

All that we found?...
1st:-----------------------------------------------------|
2nd:---10-9-10------10-9-10------10-9-10------10-9-10----|
3rd:-9---------9--9---------9--8---------8--8---------8--|
4th:-----------------------------------------------------|
5th:-----------------------------------------------------|
6th:-----------------------------------------------------| x2

Bridge 2

1st:--------------------------------------------------------------|
2nd:--------------------------------------------------------------|
3rd:---------9-------10--9----9--7-------------9------------------|
4th:-7--9-10----10-7-------10------9---7--9-10----10-7-9-----9-7--|
5th:------------------------------------------------------7-------|
6th:--------------------------------------------------------------|

Every ball is branded, serve it left handed...
1st:--------------------------------------------------------------|
2nd:--------------------------------------------------------------|
3rd:---------9-------10--9----9--7-------------9------------------|
4th:-7--9-10----10-7-------10------9---7--9-10----10-7-9-----9-7--|
5th:------------------------------------------------------7-------|
6th:--------------------------------------------------------------| x2

1st:-------------------|
2nd:-------------------|
3rd:-------------------|
4th:-9-----9-7--7-7-7--|
5th:----7--------------|
6th:-------------------|





Comments


Popular Optimus Rhyme tabs & chords
Fuzzy Dice Bass Tabs
Autobeat Airbus Tabs
Click-click Tabs
Cybernetic Circuits Tabs
Dermato Fibro Sarcoma Protuberance Tabs
Ford Vs Chevy Tabs
Fuzzy Dice 1 Tabs
I Heart Pubotcs Tabs
Obey The Moderator Tabs
Sick Day Tabs


Song lyrics



↑ Back to top | Tablatures and chords are parodies/interpretations of the original songs. You may use it for private study, scholarship, research or language learning purposes only
© 2014 AZChords.com Contact us | Privacy policy | DMCA | Add/correct tabs | Request tabs | Top 50 tabs