» » »

Optimus Rhyme, Ford Vs Chevy Tabs (ver.1)

Artists:  A B C D E F G H I J K L M N O P Q R S T U V W X Y Z # 

Ford Vs Chevy Tabs (ver.1)

Optimus Rhyme Tabs
 Rating:
4.3/5 (6 votes)
Ford Vs Chevy lessons Tabs too difficult? Try these video lessons and learn fast
                
--Song: Ford vs. Chevy
---Tab: #5



~~~~~~

All guitars in standard tuning.

Clean electric guitar tone.

~~~~~~

Intro
1st:-8---------------------|
2nd:---11-10-8----11-10----|
3rd:-----------11-------11-|
4th:-----------------------|
5th:-----------------------|
6th:-----------------------|

Chorus
1st:-------10------11-10----8--------------------|
2nd:-8--11-------8-------11----11-10-8----11-10--|
3rd:----------11-----------------------11--------|
4th:---------------------------------------------|
5th:---------------------------------------------|
6th:---------------------------------------------| x10

Verse 1
1st:--------10----------11-10------8-8---------11--10------------|
2nd:-8-8-11------11--8---------11------11-10-----------13-11--10-|
3rd:-------------------------------------------------------------|
4th:-------------------------------------------------------------|
5th:-------------------------------------------------------------|
6th:-------------------------------------------------------------|

1st:--------10-15-15-----11-10------8-8--------10--11--10--8--------|
2nd:-----11----------11---------11------11-10----------------11--10-|
3rd:-12-------------------------------------------------------------|
4th:----------------------------------------------------------------|
5th:----------------------------------------------------------------|
6th:----------------------------------------------------------------|

Chorus
1st:-------10------11-10----8--------------------|
2nd:-8--11-------8-------11----11-10-8----11-10--|
3rd:----------11-----------------------11--------|
4th:---------------------------------------------|
5th:---------------------------------------------|
6th:---------------------------------------------| x8

Verse 2
1st:--------10----------11-10------8-8---------11--10------------|
2nd:-8-8-11------11--8---------11------11-10-----------13-11--10-|
3rd:-------------------------------------------------------------|
4th:-------------------------------------------------------------|
5th:-------------------------------------------------------------|
6th:-------------------------------------------------------------|

1st:--------10-15-15-----11-10------8-8--------10--11--10--8--------|
2nd:-----11----------11---------11------11-10----------------11--10-|
3rd:-12-------------------------------------------------------------|
4th:----------------------------------------------------------------|
5th:----------------------------------------------------------------|
6th:----------------------------------------------------------------|

Chorus/bridge
1st:-------10------11-10----8--------------------|
2nd:-8--11-------8-------11----11-10-8----11-10--|
3rd:----------11-----------------------11--------|
4th:---------------------------------------------|
5th:---------------------------------------------|
6th:---------------------------------------------| x2

Bridge (rhythm not indicated)

     Gm Dm  Gm Dm  Gm Dm  Gm Dm
1st:-10-10--10-13--10-10--10-11---|
2nd:-11-10--11-10--11-13--11-10---|
3rd:-12-10--12-10--12-10--12-10---|
4th:-12-12--12-12--12-12--12-12---|
5th:------------------------------|
6th:------------------------------|

     Gm Dm  Gm Dm  Gm Dm  Gm Dm
1st:-10-10--10-11--10-11--10-13---|
2nd:-11-13--11-13--11-10--11-13---|
3rd:-12-10--12-10--12-10--12-10---|
4th:-12-12--12-12--12-12--12-12---|
5th:------------------------------|
6th:------------------------------|

1st:----------11--10-10-13-14-15-|
2nd:-------11-----11-------------|
3rd:----12--------12-------------|
4th:-13--------------------------|
5th:-----------------------------|
6th:-----------------------------|

Chorus
1st:-------10------11-10----8--------------------|
2nd:-8--11-------8-------11----11-10-8----11-10--|
3rd:----------11-----------------------11--------|
4th:---------------------------------------------|
5th:---------------------------------------------|
6th:---------------------------------------------| x7

1st:-------10------11-10----8------------------------|
2nd:-8--11-------8-------11----11-10-8----11-10----8-|
3rd:----------11-----------------------11-------11---|
4th:-------------------------------------------------|
5th:-------------------------------------------------|
6th:-------------------------------------------------|
            
Submit corrections

comments powered by Disqus
↑ Back to top | Optimus Rhyme Tabs for Ford Vs Chevy. Lyrics for acoustic guitar and electric guitar. Tablatures and chords are parodies/interpretations of the original songs. You may use it for private study, scholarship, research or language learning purposes only