>
 >
Dermato Fibro Sarcoma Protuberance

Dermato Fibro Sarcoma Protuberance Guitar Tabs

Optimus Rhyme - Dermato Fibro Sarcoma Protuberance chords, tabs, tablatures, lyrics

Guitar lessons | Add/correct | Request | Top 50 tabs Artists:  A B C D E F G H I J K L M N O P Q R S T U V W X Y Z 0-9

Dermato Fibro Sarcoma Protuberance Guitar Tabs – Optimus Rhyme

CD, Sheet music, Poster

Do you like Dermato Fibro Sarcoma Protuberance? Share with your friends now
Tabs
-----------------------------------------------------------------------------
-----------------------------------------------------------------------------

Tuning: EADGBe

Verse Riff:
e|----------------------|
B|----------------------|
G|----------------------|
D|---7--5---------------|
A|---------7--5--5--5h7-|
E|-5--------------------| x lots (No, seriously it roughly x32! Too much to count)


Chorus:
e|---7-6-5-------5-4-3------------------------------|
B|--------------------------------------------------|
G|--------------------------------------------------|
D|----------------------------------5-----5-----5h7-|
A|----------------------------5--7-----7-----7------|
E|-5--------5--7--------7--8------------------------| x4


Verse 2:
Verse Riff x4

Interlude (x2):								       
e|-------------|   |-------------|   |-------------|   |-------------|   
B|-------------|   |-------------|   |-------------|   |-------------|   
G|-------------|   |-------------|   |-------------|   |-21-21-21-21-|   
D|-21-21-21-21-|   |-22-22-22-22-|   |-21-21-21-21-|   |-------------|   
A|-------------|   |-------------|   |-------------|   |-19-19-19-19-|   
E|-19-19-19-19-|x4 |-20-20-20-20-|x4 |-19-19-19-19-|x4 |-------------|x4  
								       
Verse Riff x lots


Chorus 2/Ending:
Chourus x 3

Ending:
"An MC who lays it down man, just like that."
e|---7-6-5-------5-4-3-----------------------------------|
B|-------------------------------------------------------|
G|-------------------------------------------------------|
D|----------------------------------5-----5--------------|
A|----------------------------5--7-----7-----5-----------|
E|-5--------5--7--------7--8--------------------8---8--7-|

"Like that. Like that..."
e|-------------------------------------------------------|
B|-------------------------------------------------------|
G|-------------------------------------------------------|
D|--------------------------------------5-----5----5h7---|
A|--------------------------------5--7-----7----7--------|
E|--------------------8--7--7--8-----------------------5-|


************************************

| /   slide up
| \   slide down
| h   hammer-on
| p   pull-off
| ~   vibrato
| +   harmonic
| x   Mute note
| b   Bend
| pb  Pre-bend
| br  Bend release
| pbr Pre-bend release
| brb Bend release bend

************************************





Comments


Popular Optimus Rhyme tabs & chords
Fuzzy Dice Bass Tabs
Autobeat Airbus Tabs
Click-click Tabs
Cybernetic Circuits Tabs
Ford Vs Chevy Tabs
Fuzzy Dice Tabs
Fuzzy Dice 1 Tabs
Obey The Moderator Tabs
Organix Tabs
Sick Day Tabs


Song lyrics



↑ Back to top | Tablatures and chords are parodies/interpretations of the original songs. You may use it for private study, scholarship, research or language learning purposes only
© 2014 AZChords.com Contact us | Privacy policy | DMCA | Add/correct tabs | Request tabs | Top 50 tabs