» » »

Click-click Tabs (ver.1)

Artists:  A B C D E F G H I J K L M N O P Q R S T U V W X Y Z # 

Click-click Tabs (ver.1)

Optimus Rhyme
Rating:
0/5 (0 votes)

Hard to play? Try these video lessons and learn fast.
                -----------------------------------------------------------------------------
                     CLICK CLICK - Optimus Rhyme - Transformed EP
-----------------------------------------------------------------------------

Tuning:EADGBe

Verse Riff*:
e|-5-------------1-----------1-----------0----|
B|---6---6--2-------2--1--------1--1--------1-|
G|-----5-------3----------2-----------0-------|
D|--------------------------------------------|
A|--------------------------------------------|
E|--------------------------------------------| x10

*If this looks too daunting, think of it as these positions (lined up with the above for 
you convenience):
e|-5--------1----------1-----------0----------|
B|-6--------2----------1-----------1----------|
G|-5--------3----------2-----------0----------|
D|--------------------------------------------|
A|--------------------------------------------|
E|--------------------------------------------|

Pre-chorus* :
e|-1-----1-----0-----0------------------------|
B|-1-----1-----1-----1------------------------|
G|---2-----2-----0-----0----------------------|
D|--------------------------------------------|
A|--------------------------------------------|
E|--------------------------------------------| x2

*Once again, think of it as chord positions:
e|-1-----------0------------------------------|
B|-1-----------1------------------------------|
G|-2-----------0------------------------------|
D|--------------------------------------------|
A|--------------------------------------------|
E|--------------------------------------------|

Chorus:
e|-5-5-5-5--------6---------------------------|
B|-5-6-5-6--5/6-6---6-------------------------|
G|-5-5-5-5--5/6-6-----------------------------|
D|--------------------------------------------|
A|--------------------------------------------|
E|--------------------------------------------| x8


Verse 2 and Pre-chorus 2 are the same.


Chorus 2 is mostly the same, but it goes Chorus (x7) and ends on:
e|-5-5-5-5---5-5-5-5---5-5-5-5----------------|
B|-5-6-5-6---5-6-5-6---5-6-5-6----------------|
G|-5-5-5-5---5-5-5-5---5-5-5-5----------------|
D|--------------------------------------------|
A|--------------------------------------------|
E|--------------------------------------------|


Bridge (w/ delay):
e|-5-----5--6--3-----6--6--3-----6--5---------|
B|---6------------5-----------5-------6-------|
G|-----5--------------------------------5-----|
D|--------------------------------------------|
A|--------------------------------------------|
E|--------------------------------------------| x4

Then finish with the Verse (x2) and the Pre-chorus (x2) and end on:
e|-5-|
B|-6-|
G|-5-|
D|---|
A|---|
E|---|

************************************

| /   slide up
| \   slide down
| h   hammer-on
| p   pull-off
| ~   vibrato
| +   harmonic
| x   Mute note
| b   Bend
| pb  Pre-bend
| br  Bend release
| pbr Pre-bend release
| brb Bend release bend

************************************
            
Hard to play? Try these video lessons and learn fast. | Correct




comments powered by Disqus
↑ Back to top | Tablatures and chords are parodies/interpretations of the original songs. You may use it for private study, scholarship, research or language learning purposes only