>
 >
Pins And Needles

Pins And Needles Guitar Tabs

Opshop - Pins And Needles chords, tabs, tablatures, lyrics

Guitar lessons | Add/correct | Request | Top 50 tabs Artists:  A B C D E F G H I J K L M N O P Q R S T U V W X Y Z 0-9

Pins And Needles Guitar Tabs – Opshop

CD, Sheet music, Poster

Do you like Pins And Needles? Share with your friends now
Tabs
Band: OpShop

there are extra parts in the lead guitar in the last part of the chorus that are 
simple enough to figure out.

p= pull off
h= hammer on

Intro:

e-15h17p12-------------------------|
b----------15--17--------13h15h17--|
g-------------------14-14----------|
d----------------------------------|
a----------------------------------|
e----------------------------------|

e--------------------------------------------------|
b-17-17-------13-13-------17-17-------13-13--------|
g-------14-14-------14-14-------14-14-------14-14--|
d--------------------------------------------------|
a--------------------------------------------------|
e--------------------------------------------------|

e--------------------------------------------------|
b-13-13-12-12-13-13-------13-13-12-12-13-13--------|
g-------------------14-14-------------------14-14--|
d--------------------------------------------------|
a--------------------------------------------------|
e--------------------------------------------------|

e----------------------------------------------------------------|
b----------------------------------------------------------------|
g-12-12-12-12-12-12-12-12-11-11-11-11-11-11-11-11----------------|
d----------------------------------------------------------------|
a-10-10-10-10-10-10-10-10-9--9--9--9--9--9--9--9-----------------|
e----------------------------------------------------------------|


Verse 1:

Lead guitar

e-15h17p12-------------------------|
b----------15--17--------13h15h17--|
g-------------------14-14----------|
d----------------------------------|     (x as many times as needed in verse)
a----------------------------------|
e----------------------------------|

Am
when the feeling returns
Am
when my blood runs back
Am
my limbs feel ghostly
Am
where I counter attacked
Am
the feelings mutual
Am
we weave the same thread
Am
our lives are nocturnal
Am
but we're almost ahead

Chorus:

lead guitar

e--------------------------------------------------|
b-17-17-------13-13-------17-17-------13-13--------|
g-------14-14-------14-14-------14-14-------14-14--|
d--------------------------------------------------|
a--------------------------------------------------|
e--------------------------------------------------|

e--------------------------------------------------|
b-13-13-12-12-13-13-------13-13-12-12-13-13--------|
g-------------------14-14-------------------14-14--|
d--------------------------------------------------| (x what's needed)
a--------------------------------------------------|
e--------------------------------------------------|

F      C          G
I wish I could
G              Am             F
I wish I could unsay what was said
             C               D
if I had the chance to start over again
F      C          G
I wish I could
G              Am             F
I wish I could unsay what was said
            C
if pins and needles claim me
D
tell them I was caught in my own web

e----------------------------------------------------------------|
b----------------------------------------------------------------|
g-12-12-12-12-12-12-12-12-11-11-11-11-11-11-11-11----------------|
d----------------------------------------------------------------|
a-10-10-10-10-10-10-10-10-9--9--9--9--9--9--9--9-----------------|
e----------------------------------------------------------------|

e-----------------------|
b-----------------------|
g-----------------------|
d-----------------------|
a-----------------------|
e-3h5-5-3h5-5-3h5-(x4)--|

Verse 2:

lead guitar

e-15h17p12-------------------------|
b----------15--17--------13h15h17--|
g-------------------14-14----------|
d----------------------------------|     (x as many times as needed in verse)
a----------------------------------|
e----------------------------------|

Am
out of the corner of my eye some crazy sky
Am
creeping up on us I couldnt figure out why
Am
ghostly mostly but a long way back
Am
a lot of he said but she said that

Chorus:

lead guitar

e--------------------------------------------------|
b-17-17-------13-13-------17-17-------13-13--------|
g-------14-14-------14-14-------14-14-------14-14--|
d--------------------------------------------------|
a--------------------------------------------------|
e--------------------------------------------------|

e--------------------------------------------------|
b-13-13-12-12-13-13-------13-13-12-12-13-13--------|
g-------------------14-14-------------------14-14--|
d--------------------------------------------------| (x what's needed)
a--------------------------------------------------|
e--------------------------------------------------|

F      C          G
I wish I could
G              Am             F
I wish I could unsay what was said
             C               D
if I had the chance to start over again
F      C          G
I wish I could
G              Am             F
I wish I could unsay what was said
            C
if pins and needles claim me
D
tell them I was caught in my own web

e----------------------------------------------------------------|
b----------------------------------------------------------------|
g-12-12-12-12-12-12-12-12-11-11-11-11-11-11-11-11----------------|
d----------------------------------------------------------------|
a-10-10-10-10-10-10-10-10-9--9--9--9--9--9--9--9-----------------|
e----------------------------------------------------------------|

Bridge:

e-0--0--0--0--|
b-1--1--1--1--|
g-2--2--2--2--|
d-2--2--0--0--|           (repeat)
a-0--0--2--3--|
e-------------|

my own web...
yeah, in my own web

Chorus:

Chorus:

lead guitar

e--------------------------------------------------|
b-17-17-------13-13-------17-17-------13-13--------|
g-------14-14-------14-14-------14-14-------14-14--|
d--------------------------------------------------|
a--------------------------------------------------|
e--------------------------------------------------|

e--------------------------------------------------|
b-13-13-12-12-13-13-------13-13-12-12-13-13--------|
g-------------------14-14-------------------14-14--|
d--------------------------------------------------| (x what's needed)
a--------------------------------------------------|
e--------------------------------------------------|

F      C          G
I wish I could
G              Am             F
I wish I could unsay what was said
             C               D
if I had the chance to start over again
F      C          G
I wish I could
G              Am             F
I wish I could unsay what was said
            C
if pins and needles claim me
D
tell them I was caught in my own web

e----------------------------------------------------------------|
b----------------------------------------------------------------|
g-12-12-12-12-12-12-12-12-11-11-11-11-11-11-11-11----------------|
d----------------------------------------------------------------|
a-10-10-10-10-10-10-10-10-9--9--9--9--9--9--9--9-----------------|
e----------------------------------------------------------------|

repeat chorus

outro:

e-------------------------|
b-------------------------|
g-------------------------|
d----------------------7--|
a-3h5-5-3h5-5-3h5-(x8)-7--|
e----------------------5--|





Comments


Popular Opshop tabs & chords
Never Leave Me Again 3 Chords
Nothing To Hide Chords
One Day Chords
One Day 1 Chords
Smoke And Mirrors Chords
Big Energy In Little Places Tabs
One Day Tabs
Love Will Always Win Ukulele
No Ordinary Thing Ukulele
Waiting Now Ukulele


Song lyrics



↑ Back to top | Tablatures and chords are parodies/interpretations of the original songs. You may use it for private study, scholarship, research or language learning purposes only
© 2014 AZChords.com Contact us | Privacy policy | DMCA | Add/correct tabs | Request tabs | Top 50 tabs