» » »

One Day Tabs (ver.1)

Artists:  A B C D E F G H I J K L M N O P Q R S T U V W X Y Z # 

One Day Tabs (ver.1)

Opshop
Rating:
0/5 (0 votes)

Hard to play? Try these video lessons and learn fast.
                Capo 2
This isn't exactly how the song goes but I just improvise.

  G         Am   G/B
e|-------------------------------------|
b|----0-----1------0----0--------------|
g|---0-0---2-2----0-0--0-0-------------|
d|-------------------------------------|
a|--------0------2----2----------------|
e|--3----------------------------------|
Absense makes the heart grow stronger

  C       Am     G
e|---------------------------------|
b|----1-----1-----0-----0----------|
g|---0-0---2-2---0-0---0-0---------|
d|---------------------------------|
a|--3-----0------------------------|
e|--------------3-----3------------|
While I'm conquering the last frontier

  G         Am   G/B
e|-------------------------------------|
b|----0-----1------0----0--------------|
g|---0-0---2-2----0-0--0-0-------------|
d|-------------------------------------|
a|--------0------2----2----------------|
e|--3----------------------------------|
Lately I've found myself wonderinf out loud

C       Am     G
e|---------------------------------|
b|----1-----1-----0-----0----------|
g|---0-0---2-2---0-0---0-0---------|
d|---------------------------------|
a|--3-----0------------------------|
e|--------------3-----3------------|
Wondering if I was truly there      one

  F        C     G
e|-----------------------------------|
b|---1-----1------0------0-----------|
g|--2-2---0-0----0-0----0-0----------| play three times
d|-3---------------------------------|
a|-------3---------------------------|
e|-------------3------3--------------|
Day you'll understand how much you have me, one
day you'll realise we have it easy. I cant
Offer you the future, I dont know it myself, all


e|----------------------------------|
b|-----1-------1--------------------|
g|----2-2-----2-2-------------------|
d|-----------3----------------------|
a|--0-------------------------------|
e|----------------------------------|
I can offer you is me, all i can

Then you can either strum or pick the chords for the next vers and chorus. When its b/g 
I just do G if I'm strumming. Enjoy :)
            
Hard to play? Try these video lessons and learn fast. | Correct




comments powered by Disqus
↑ Back to top | Tablatures and chords are parodies/interpretations of the original songs. You may use it for private study, scholarship, research or language learning purposes only