» » »

War On Drugs Tabs (ver.1)

Artists:  A B C D E F G H I J K L M N O P Q R S T U V W X Y Z # 

War On Drugs Tabs (ver.1)

Opm
Rating:
0/5 (0 votes)

Hard to play? Try these video lessons and learn fast.
                
Verse:
---0-0-0-0-0---0-0-0-0-0---|---0---x-x-x---0---x-x-x---
---0-0-0-0-0---0-0-0-0-0---|---0---x-x-x---0---x-x-x---
---1-1-1-1-1---2-2-2-2-2---|---1---x-x-x---2---x-x-x---
---2-2-2-2-2---2-2-2-2-2---|---2---x-x-x---2---x-x-x---
---2-2-2-2-2---0-0-0-0-0---|---2---x-x-x---0---x-x-x---
---0-0-0-0-0---0-0-0-0-0---|---0---x-x-x---0---x-x-x---

end with:
--------0------------------
-------0-------------------
------1--------------------
-----2---------------------
----2----------------------
---0-----------------------

Lyrics:
Here's the tempo, dude
Geoff play it
Yeah
Oooh, yeah
I've been jailed
And my phone's been bugged
But I'm still winning the war on drugs
Oh yeah, oh yeah
Oh yeah, oh yeah

Now in my backyard I've got a stock of ? 
Like my cocaine with tequila
Oh yeah, oh yeah 
Oh yeah, oh yeah

Now ATF, and that DEA 
They busted down my door,
But I was out of town that day
Oh yeah (uh huh), oh yeah
Oh yeah, (whoo), oh yeah

Now I only smoke the cronic
No I never smoke for stress
I get high with the help of Federal Express
Oh yeah, oh yeah 
Everybody, oh yeah, oh yeah
        
Cause I've been jailed and my phone's been bugged
But I'm still winning the war on drugs
That's right...
            
Hard to play? Try these video lessons and learn fast. | Correct




comments powered by Disqus
↑ Back to top | Tablatures and chords are parodies/interpretations of the original songs. You may use it for private study, scholarship, research or language learning purposes only