» » »

Opm, Unda Tabs (ver.1)

Artists:  A B C D E F G H I J K L M N O P Q R S T U V W X Y Z # 

Unda Tabs (ver.1)

Opm Tabs
Rating:
2/5 (1 vote)
Unda lessons Tabs too difficult? Try these video lessons and learn fast
                ++++++++++++++++++++++++++++++++++

    O P M  -  "Undo"

++++++++++++++++++++++++++++++++++
++++++++++++++++++++++++++++++++++


VERSE
(reggae)
  G      C

---------8----|
--12-----8----|
--12-----9----|
--12----10----|
--10----10----|
--10-----8----|


CHORUS
  D     A          D   C  A#
-----------------|-------------|
--10----14-------|-------------|
--11----14-------|-------------|
--12----14-------|----10---8---|
--12----12-------|----10---8---|
--10----12-------|-----8---6---|

BRIDGE

Em  C   D

12   8  10
12   8  10
-    9  11
14  10  12
14  10  12
-   -   -


Em           C      D

--12-[5x]------15-15--14--12--|
-----------12-----------------|
------------------------------|
------------------------------|
------------------------------|
------------------------------|

Em            C (D) Em

--12-[5x]-----------------|
----------12----13--12----|
----------------12--12----|
-------------------(14)---|
--------------------------|
--------------------------|

          C           D      Em
----------------------------------|
-12-13-15-13-12----12-------------|
----------------14----12-11-------|
-----------------------------14---|
----------------------------------|
----------------------------------|

C            D                 G
---------------------------------------|
--------------bend---------------------|
------12-14-14b16r14-12-14-12--14-12---|
-12-14-----------------------14--------|
---------------------------------------|
---------------------------------------|

...somethin like that :D
            

comments powered by Disqus
↑ Back to top | Opm Tabs for Unda. Lyrics for acoustic guitar and electric guitar. Tablatures and chords are parodies/interpretations of the original songs. You may use it for private study, scholarship, research or language learning purposes only