>
 >
 >
Dealearman

Dealearman Guitar Tabs

Opm - Dealearman chords, tabs, tablatures, lyrics

Guitar lessons | Add/correct | Request | Top 50 tabs Artists:  A B C D E F G H I J K L M N O P Q R S T U V W X Y Z 0-9

Dealearman Guitar Tabs – Opm

CD, Sheet music, Poster

Do you like Dealearman? Share with your friends now
Tabs
Standard tuning

Rhythm guitar:
Verse & Pre-chorus:
   Em
---0---0---0---0---|
---0---0---0---0---|
---0---0---0---0---|
---2---2---2---2---|
---2---2---2---2---|
---0---0---0---0---|

Chorus:
   C   Em  C   Em
---0---0---0---0---|
---1---0---1---0---|
---0---0---0---0---|
---2---2---2---2---|
---3---2---3---2---|
-------0-------0---|

Bridge: 02:13
---00--0--0--0---0-3-2-----|
---0--0--0--0--0---0-3-2----|
---0--0--0--0--0---0-3-2----|
---2--2--2--2--2---2-5-4----|
---2--2--2--2--2---2-5-4----|
---0--0--0--0--0---0-3-2----|

Lead guitar:
Verse:
-------------|---3--2--0---|
-------------|---------0---|
-------------|-------------|
------0--2---|-------------|
---2---------|-------------|
-------------|-------------|

Chorus:
-----------------------------|
-----------------------------|
-------5-----4---------------|
-----5-----4-----------------|
---3-----2-------------------|
-----------------------------|

2nd pre-chorus:
------------------|
---5-4-5-4-5-4----|
------------------|
------------------|
------------------|
------------------|

Bridge:
-------------------------|
------------------0------|
------------------0--2---|
---2-2-2-2-2---2---------|
-------------------------|
-------------------------|

Solo:
------5/7-3-5-3----10-------10----10----10-10h12-----15-14-12-10---------------------|
--5-8-----------------12-12----12----12--------------------------12-10-------10------|
-----------------------------------------------------------------------12-12----12-9-|
-------------------------------------------------------------------------------------|
-------------------------------------------------------------------------------------|
-------------------------------------------------------------------------------------|

------------------------------------------------------------10-10h12---p10---|
---10-12----10-----------------------------10-12----10-----------------------|
---------12----12----------------9-12---12-------12----12--------------------|
----------------------------9-12---------------------------------------------|
----------------------10-12--------------------------------------------------|
-----------------------------------------------------------------------------|





Comments


Popular Opm tabs & chords
Stash Up 1 Bass Tabs
Heaven Is A Halfpipe 1 Chords
Heaven Is A Halfpipe 2 Chords
Better Daze Tabs
Fish Out Of Water 1 Tabs
Heaven Is A Half Pipe Intro Tabs
Heaven Is A Halfpipe Tabs
Heaven Is A Halfpipe 1 Tabs
Heaven Is A Halfpipe 2 Tabs
Mahiwaga Ukulele


Song lyrics



↑ Back to top | Tablatures and chords are parodies/interpretations of the original songs. You may use it for private study, scholarship, research or language learning purposes only
© 2014 AZChords.com Contact us | Privacy policy | DMCA | Add/correct tabs | Request tabs | Top 50 tabs