>
 >
 >
Better Daze

Better Daze Guitar Tabs

Opm - Better Daze chords, tabs, tablatures, lyrics

Guitar lessons | Add/correct | Request | Top 50 tabs Artists:  A B C D E F G H I J K L M N O P Q R S T U V W X Y Z 0-9

Better Daze Guitar Tabs – Opm

CD, Sheet music, Poster

Do you like Better Daze? Share with your friends now
TabsTabs v2
Since that other tab is horrendous, someone has to fix it.

=================
=================
 TUNING - E flat 
=================


Chords used:
    Abm  Cb  Db
eb|--0---0---2--|
Bb|--1---1---3--|
Gb|--2---0---2--|
Db|--2---2---0--|
Ab|--0---3------|
Eb|-------------|


INTRO (Acoustic)

eb|-------0----------0-----------2---------|
Bb|-------1-1--------1-----------3---------|
Gb|-------2---2------0---0-------2---------|
Db|--------------------2----0-0----0h1p0---|
Ab|--0-0--------3-3---------------------3--|
Eb|----------------------------------------|


VERSE (Acoustic)
Same as intro.

PRECHORUS (Acoustic) 
Same as intro, but there's a second acoustic guitar that starts at 0:35 and plays;

eb|----5--3-2-3-2-3-5---3--2-0-2-0-2-0--|
Bb|-------------------------------------|
Gb|--2-----------------0----------------|
Db|-------------------------------------|  x2
Ab|-------------------------------------|
Eb|-------------------------------------|


CHORUS (Distorted)
eb|-------------------------|
Bb|-------------------------|
Gb|-------5-5--7-7--7b-7-5--|
Db|--7-7--5-5--7-7--7b-7-5--|  x4
Ab|--7-7--3-3--5-5--5b-5-3--|
Eb|--5-5--------------------|


PRECHORUS x2

CHORUS 

BREAKDOWN
eb|----------------------------------|
Bb|----------------------------------|
Gb|--5---------4-----------7-----10--|
Db|--5---------4-----------7-----10--|
Ab|--3-3-333-5/2-2-222-2-3-5--7--8---|
Eb|----------------------------------|


RAP PART I
eb|--------------------------------|
Bb|--------------------------------|
Gb|----------55-xx-x-77-xx-x-7b-7--|
Db|--77-xx-x-55-xx-x-77-xx-x-7b-7--|  x4
Ab|--77-xx-x-33-xx-x-55-xx-x-5b-5--|
Eb|--55-xx-x-----------------------|


RAP PART II (starts at 2:44)
eb|----------------------------------|
Bb|----------------------------------|
Gb|---------5------7------8------7---|
Db|--7------5------7------8------7---|
Ab|--7-x8---3-x8---5-x8---6-x4---5-x4|
Eb|--5-------------------------------|

The x8 means play the chord eight times, etc.


Then you go back to the verse/intro and play that until the song fades out.





Comments


Popular Opm tabs & chords
Stash Up 1 Bass Tabs
Heavan Is A Halfpipe Intro Chords
Mahiwaga Chords
Sana Dalawa Ang Puso Ko Chords
Brighter Side Tabs
Dealearman Tabs
Fish Out Of Water 1 Tabs
Interlude: 15 Minutes Tabs
War On Drugs Tabs
Sana Dalawa Ang Puso Ko Ukulele


Song lyrics



↑ Back to top | Tablatures and chords are parodies/interpretations of the original songs. You may use it for private study, scholarship, research or language learning purposes only
© 2014 AZChords.com Contact us | Privacy policy | DMCA | Add/correct tabs | Request tabs | Top 50 tabs