» » »

Slowly Passing The Frostlands Tabs (ver.1)

Artists:  A B C D E F G H I J K L M N O P Q R S T U V W X Y Z # 

Slowly Passing The Frostlands Tabs (ver.1)

Ophthalamia
Rating:
0/5 (0 votes)

Hard to play? Try these video lessons and learn fast.
                "Slowly Passing the Frostlands/ A Winterland"
off the album "Via Dolorosa"                              

I am confident that this tab is correct, since I plugged my guitar 
into my stereo and played along with the cd.  I'm not sure, however, 
of the positions, so switch them around to find what's most comfortable 
for you to play.

h   = hammer-on
p   = pull-of
.   = palm mute
/   = slide up
\   = slide down
\\\ = pick scratch

It should be noted that on parts that I thought might look confusing 
or hard to read tabbed out (Riffs 3 and 12), I put numbers underneath 
the notes in order to aid in counting.


Standard Tuning

Riff 1
|------------------------------------------------|
|------------------------------------------------|
|------------------------------------------------|
|------------------------------------------------|
|------7h8-7-\5-5--8h10-8-----7h8-10-----7h8-10--|
|--5----------------------8----------7-7---------|

|-----------------------------------------------------|
|-----------------------------------------------------|
|-----------------------------------------------------|
|-----------------------------------------------------|
|------7h8-7-\5-5--8h10-8h10p8-----7h8-10-----7h8-10--|
|--5---------------------------8----------7-7---------|

Fill 1
|-------------|
|-------------|
|-------------|
|-------------|
|--5-5\4-0----|
|--3-3\2-2----|

Riff 2
|-------------------------------------|
|-------------------------------------|
|-------------------------------------|
|-------------------------------------|
|--2h3-2h3-5-3h5p3p2-3h2---0-5-5\4-2--|
|----------------------------3-3\2-0--|

|-----------------------------------------|
|-----------------------------------------|
|-----------------------------------------|
|-----------------------------------------|
|--5-3h5p3p2-3-5-3h5p3p2-3-2---0-5-5\4-2--|
|--------------------------------3-3\2-0--|

Fill 2
|----------|
|----------|
|----------|
|--7--777--|
|--5--555--|
|----------|

Riff 3
|-------------------------------------------------------|
|-------------------------------------------------------|
|-------------------------------------------------------|
|--7--777--77-8\7-8-10--8\7-8-7--5-7--777--77-8\7-8-10--|
|--5--555--55-6\5-6-8---6\5-6-5--3-5--555--55-6\5-6-8---|
|-------------------------------------------------------|

|-----------------------------------------------------|
|-----------------------------------------------------|
|-----------------------------------------------------|
|--/10101010-10-8-7--777--77-8\7-8-10--8\7-8-7--5-7---|
|--/8-8-8-8--8--6-5--555--55-6\5-6-8---6\5-6-5--3-5---|
|-----------------------------------------------------|

|--------------------------------------|
|--------------------------------------|
|--------------------------------------|
|--777--77-8\7-8-10--/101010101010-12--|
|--555--55-6\5-6-8---/8-8-8-8-8-8--10--|
|--------------------------------------|
                      1 2 3 1 2 3  1

|--------------------------------------------|
|--------------------------------------------|
|--------------------------------------------|
|--12121212--121212141414131313141414131313--|
|--10101010--101010121212111111121212111111--|
|--------------------------------------------|
   1 2 3 1   1 2 3 1 2 3 1 2 3 1 2 3 1 2 3 

|------------------------------------------------|
|------------------------------------------------|
|------------------------------------------------|
|--141414131313141414131313-12-121212-10--10--9--|
|--121212111111121212111111-10-101010-8---8---7--|
|------------------------------------------------|
   1 2 3 1 2 3 1 2 3 1 2 3  1  1 2 3

Riff 4
|------------------------------------------------------|
|------------------------------------------------------|
|------------------------------------------------------|
|------------------------------------------------/7-5--|
|--2----2-5--4---------------------2----2-5--4---------|
|---------------5-3----3\2----2-\----------------------|

                     ending 1            ending 2
|------------|------|           |------|
|------------|------|           |------|
|------------|------|           |------|
|--5h7p5p4---|-4\1--|           |--4/--|
|------------|------|           |------|
|------------|------|           |------|

Riff 5
|-------------------------------------------------|
|-------------------------------------------------|
|-------------------------------------------------|
|--/9--9-9--------------/10--10-10----------------|
|----------10-9h10p9-7-------------11-10h11p10-7--|
|-------------------------------------------------|

|-------------------------------------|
|-------------------------------------|
|-------------------------------------|
|--/9--9-9-------------7--7-----------|
|----------10-9h10p9-7------10\9-9----|
|-------------------------------------|

Riff 6
|----------------------------------------|
|----------------------------------------|
|----------------------------------------|
|------9------------------------------9--|
|--7-7----10-9-7----7-9-10-9-7----7-7----|
|----------------10------------10--------|

|--------------------------------|
|--------------------------------|
|--------------------------------|
|-----7-9-10-9h10p9p7------------|
|--10-----------------10-9-7-----|
|----------------------------10--|

Riff 7                                             1st time only
|---------------------------------------------------|------|
|---------------------------------------------------|------|
|---------------------------------------------------|------|
|--7--7-7-5h7p5---5\4-----4/5-7--7-7-5h7p5---5\4-4--|-4/5--|
|---------------7-----5-5------------------7--------|------|
|---------------------------------------------------|------|

Riff 8
|--------------------------------|
|--------------------------------|
|--------------------------------|
|----7--7-7----5--3-5-3h5h3p2-3--|
|----5--5-5----3-----------------|
|--0---------0-------------------|
   .         .

Fill 3
|-----------------------------------------------------|
|------------------------------------8-8p6p5-8p6p5-8--|
|--7-5h7p5p4---4\3---3\2---7-5h7p5p4------------------|
|------------5-----4-----3----------------------------|
|-----------------------------------------------------|
|-----------------------------------------------------|

Riff 9
|------------------------------------------|
|--8p6p5----------------8p6p5--------------|
|--------7-5------------------7-5-8---7----|
|------------7-9-10p9p7-------------9---8--|
|------------------------------------------|
|------------------------------------------|

Riff 10
|-----------------------------------|
|-----------------------------------|
|-----------------------------------|
|----6--7-9-7-6h7p6---4--5-7p5p4-5--|
|--7----------------5---------------|
|-----------------------------------|

Fill 4
|-------------|
|-------------|
|-------------|
|-------------|
|--2-------2--|
|------3-2-0--|

Riff 11
|----------------------------------------------------------|
|----------------------------------------------------------|
|----------------------------------------------------------|
|-------8h10p8----------------------8h10p8-----------------|
|--8h10--------10-10-8h10p8\5--8h10--------10-10-8h10p8\5--|
|----------------------------------------------------------|

|--------------------------------------------------------|
|--------------------------------------------------------|
|--------------------------------------------------------|
|-------8h10p8-------------------------------------------|
|--8h10--------10-10-8h10p8\5--10-8h10p8\5--10-8h10p8\5--|
|--------------------------------------------------------|

Riff 12
|---------------------------------------------|
|---------------------------------------------|
|---------------------------------------------|
|------------------5---------------------5----|
|--7-7p5h7p5h7p5h7---7-5-7-7p5h7p5h7p5h7---7--|
|---------------------------------------------|
        1   2   3             1   2   3

Fill 5
|-----|
|-----|
|-----|
|--9--|
|-----|
|-----|

Riff 13
|----------------------------------------------|
|----------------------------------------------|
|-------------9-7------------------------------|
|--7-7h9h10p9-----10-9-7-9---6-6-7-7-7h9h10p9--|
|--------------------------7-------------------|
|----------------------------------------------|

|---------------------|
|---------------------|
|--9-7-9-10p9p7-10-9--|
|---------------------|
|---------------------|
|---------------------|

Riff 14
|------------------------------------------------|
|------------------------------------------------|
|------------------------------------------------|
|--/9--------------------------------------------|
|------10-9-7----7-9h10p9-7-----7----7-9h10p9-7--|
|-------------10-------------10---10-------------|

|--------------------------------------|
|--------------------------------------|
|--------------------------------------|
|---------------------------------9-10-|
|-----7-9-10-12-10h12p10p9--10-12------|
|--10----------------------------------|

|------------------------------------------|
|------------------------------------------|
|------------------------------------------|
|--12-10h12p10p9-10-12-10h12p10p9----------|
|---------------------------------12-10-9--|
|------------------------------------------|

|----------------------|
|----------------------|
|----------------------|
|----------------------|
|--12-10h12p10p9-10-9--|
|----------------------|

Fill 6
|-------|
|-------|
|-------|
|--\\\--|
|--\\\--|
|--\\\--|
Order:

Riff 1  x3              Riff 9  x2
Fill 1  x1              Riff 10 x2
Riff 2  x2              Fill 4  x1
Fill 1  x4              Riff 2  x2
Fill 2  x1              Fill 1  x4
Riff 3  x2              Riff 3  x1
Riff 4  x2              Riff 11 x2
Riff 5  x4              Riff 12 x4
Riff 6  x4              Riff 3  x1
Riff 7  x2              Riff 4  x2
Riff 8  x2              Riff 5  x6
Riff 7  x2              Fill 5  x1
Riff 8  x2              Riff 13 x4
Fill 3  x1              Riff 14 x2
Riff 9  x2              bass solo
Riff 10 x2              Fill 6  x1
Fill 4  x1              Riff 1  x1 (faster)
Fill 3  x1              ritard


That's it!  All 8,000 riffs of it!  
            
Hard to play? Try these video lessons and learn fast. | Correct




comments powered by Disqus
↑ Back to top | Tablatures and chords are parodies/interpretations of the original songs. You may use it for private study, scholarship, research or language learning purposes only