>
 >
After A Releasing Deathcastle Of No Repair Part 2

After A Releasing Deathcastle Of No Repair Part 2 Guitar Tabs

Ophthalamia - After A Releasing Deathcastle Of No Repair Part 2 chords, tabs, tablatures, lyrics

Guitar lessons | Add/correct | Request | Top 50 tabs Artists:  A B C D E F G H I J K L M N O P Q R S T U V W X Y Z 0-9

After A Releasing Deathcastle Of No Repair Part 2 Guitar Tabs – Ophthalamia

CD, Sheet music, Poster

Do you like After A Releasing Deathcastle Of No Repair Part 2? Share with your friends now
Tabs
OPHTHALAMIA - AFTER A RELEASING DEATH/CASTLE OF NO REPAIR(PART II)
        From the Album VIA DOLOROSA
        Copyright 1995 Avantgarde Music Italy

                              Version 1.0 - NOVEMBER 1996
                                  
Transcription Done By: Richard Broadhead II() 
For Questions, Comments, Corrections, or Newest Version; 
               please contact Rich Broadhead at 

Check Out My Web Page, With More Transcriptions On It:
               

.  - palm mute                          /  - slide up to                       
\  - slide down to                      ~  - vibrato                            
h  - hammer on                          p  - pull off                                 
() - ghost note                         *  - see comment

Tuning: Normal

 Opening Riff(Play Four times)
|---------------------------------------------|
|---------------------------------------------|
|---------------------------------------------|
|-3--2h3p2-0-2~---3-2h3p2-0-5~--3h5p3-2h3p2-0-|
|---------------------------------------------|
|---------------------------------------------|

|-----------|
|-----------|
|-----------|
|-3-2h3p2-0-|
|-----------|
|-----------|
 
 Lyck A(play twice)
|-------------------------------------------------|
|-------------------------------------------------|
|-------------------------------------------------|
|-7-7---------------------------------------------|
|-----5-3-5~---7-8---/12-12-----------------------|
|---------------------------10-8-10---10h13p12p10-|

 Riff A
|---------------------------------------------------------|
|---------------------------------------------------------|
|---------------------------------------------------------|
|-7-777---------------------------------------------------|
|-------5-3-5~---7-8--/12--12-12-12-----------------------|
|-----------------------------------10-8-10---10h13p12p10-|

Play Riff A twice

 Riff B
|-----------------------------------------------|
|-----------------------------------------------|
|-----------------------------------------------|
|-2~--0--2--5----4--2~----2--0--2--7-5-4-5-4-2--|
|-----------------------------------------------|
|-----------------------------------------------|

Play Riff B a total of two times

|----------------------------------------------------------|
|----------------------------------------------------------|
|----------------------------------------------------------|
|-7-777----------------------------------------------------|
|-------5-3-5~---7-88--/12--12-12-12-----------------------|
|------------------------------------10-8-10---10h13p12p10-|

The Play Riff A
                               _______  ______
Riff C                        | 1-7.   | 8.
|---|---------------------------------|--------|
|---|---------------------------------|--------|
|---|*-------------------------------*|--------|
|---|*-------------------------------*|--------|
|---|-----3-0-----3-0-----3-0-----2-0-|-----2--|
|-0-|-3h5-----3h5-----3h5-----2h3-----|-2h3----|

Play Riff A twice
Play Riff B twice
Play Riff A twice
Play Riff C, but on the 8th time play the same as on times 1 through 7

 Play Three times
|------------------------------|--------------------------|
|------------------------------|--------------------------|
|------------------------------|--------------------------|
|-------5---4h5p4---2~---2~----|-------5---9p7h9----------|
|-2---2----------------------0-|-2---2------------7--7--3-|
|------------------------------|--------------------------|
 
|------------------------------|-----------------------------|
|------------------------------|-----------------------------|
|------------------------------|-----------------------------|
|-------5---4h5p4---2~---2~----|-------5---9p7h9-9-----------|
|-2---2----------------------0-|-2---2---------------7--7--3-|
|------------------------------|-----------------------------|

 Riff D
|-----------------------|
|-----------------------|
|-----------------------|
|-9-9-9-9-999999999999--|
|-7-7-7-7-777777777777--|
|-----------------------|   

Play Riff A twice
Play Riff B twice
Play Riff A twice
Play Riff D

 Play Twice
|-------------------------------------------------------------|
|-------------------------------------------------------------|
|-------------------------------------------------------------| GTR II
|-9/10-10-10-9--9--9/10-10-10-9--9--9/10-10-10-9--9--7----7---|
|-7/8--8--8--7--7--7/8--8--8--7--7--7/8--8--8--7--7--5----5---|
|-------------------------------------------------------------|
|
|-------------------------------------------------------------|
|-------------------------------------------------------------|
|-------------------------------------------------------------| GTR II
|----------------------------------------------------7----7---|
|----------------------------------------------------5----5---|
|-------------------------------------------------------------|

 Riff E
|-------------------------------------------------------------|
|-------------------------------------------------------------|
|-------------------------------------------------------------| GTR II
|-9/10-10-10-9--9--9/10-10-10-9--9--9/10-10-10-9--9--7----7---|
|-7/8--8--8--7--7--7/8--8--8--7--7--7/8--8--8--7--7--5----5---|
|-------------------------------------------------------------|

Play Riff E a total of four times
slight pause
Play Riff E 4 more times

For Questions, Comments, Corrections, or Newest Version; 
               please contact Rich Broadhead at 

Check Out My Web Page, With More Transcriptions On It:





Comments


Popular Ophthalamia tabs & chords
A Long Journey Tabs
Death Crush Tabs
Intro Under Ophthalamian Skiesto The Benighted Tabs
Slowly Passing The Frostlands Tabs
Time For War Tabs


Song lyrics



↑ Back to top | Tablatures and chords are parodies/interpretations of the original songs. You may use it for private study, scholarship, research or language learning purposes only
© 2014 AZChords.com Contact us | Privacy policy | DMCA | Add/correct tabs | Request tabs | Top 50 tabs