>
 >
To Rid The Disease

To Rid The Disease Bass Tabs

Opeth - To Rid The Disease chords, tabs, tablatures, lyrics

Guitar lessons | Add/correct | Request | Top 50 tabs Artists:  A B C D E F G H I J K L M N O P Q R S T U V W X Y Z 0-9

To Rid The Disease Bass Tabs – Opeth

CD, Sheet music, Poster

Do you like To Rid The Disease? Share with your friends now
Bass TabsBass Tabs v2Bass Tabs v3Bass Tabs v4ChordsTabsUkulele
G||-------|------|------|------|------|------|------|------|
D||*------|------|------|------|------|------|------|------|
A||*------|------|------|------|------|------|------|------|
E||-------|------|------|------|------|------|------|------|


                                                                       
|--------------------|------|------|------|------|------|------|------|
|*-------------------|------|------|------|------|------|------|------|
|*-------------------|------|------|------|------|------|------|------|
|---3----------------|------|------|------|------|------|------|------|


                                                                     
-------------------|------|------|------|------|------|------|------|
-------------------|------|------|------|------|------|------|------|
-------------------|------|------|------|------|------|------|------|
--3----------------|------|------|------|------|------|------|------|


                                                              
|--------------------|-------------------|-------------------|
|*-------------------|-------------------|-------------------|
|*-------------------|-------------------|-------------------|
|---3----------------|--3----------------|--3----------------|


                                                                    
-------------------------||--------------------|-------------------|
------------------3--5--*||*-------------------|-------------------|
------------3--5--------*||*-------------------|-------------------|
--3----3-----------------||---3----------------|--3----------------|


                                                                 
-------------------|------------------------|-------------------|
-------------------|------------------3--5--|-------------------|
-------------------|------------3--5--------|-------------------|
--3----------------|--3----3----------------|--3----------------|


                                                                 
-------------------|-------------------|------------------------|
-------------------|-------------------|------------------3--5--|
-------------------|-------------------|------------3--5--------|
--3----------------|--3----------------|--3----3----------------|


                                                              
|--------------------|-------------------|-------------------|
|*--2----------------|--0----------------|-------------------|
|*-------------------|-------------------|--4----------------|
|--------------------|-------------------|-------------------|


                                                             
--------------------|-------------------|-------------------|
--------------------|--2----------------|--0----------------|
--3----3------------|-------------------|-------------------|
--------------------|-------------------|-------------------|


                                                             
-------------------|--------------------|-------------------|
-------------------|--------------------|--2----------------|
--4----------------|--3----3------------|-------------------|
-------------------|--------------------|-------------------|


                                                             
-------------------|-------------------|--------------------|
--0----------------|-------------------|--------------------|
-------------------|--4----------------|--3----3------------|
-------------------|-------------------|--------------------|


                                                            
-------------------|-------------------|-------------------|
--2----------------|--0----------------|-------------------|
-------------------|-------------------|--4----------------|
-------------------|-------------------|-------------------|


                                                             
--------------------|-------------------|-------------------|
--------------------|-------------------|-------------------|
--3----3------------|-------------------|-------------------|
--------------------|--3----------------|--3----------------|


                                                                 
-------------------|------------------------|-------------------|
-------------------|------------------3--5--|-------------------|
-------------------|------------3--5--------|-------------------|
--3----------------|--3----3----------------|--3----------------|


                                                                 
-------------------|-------------------|------------------------|
-------------------|-------------------|------------------3--5--|
-------------------|-------------------|------------3--5--------|
--3----------------|--3----------------|--3----3----------------|


                                                              
|--------------------|-------------------|-------------------|
|*-------------------|-------------------|-------------------|
|*-------------------|-------------------|-------------------|
|---3----------------|--3----------------|--3----------------|


                                                                 
------------------------|-------------------|-------------------|
------------------3--5--|-------------------|-------------------|
------------3--5--------|-------------------|-------------------|
--3----3----------------|--3----------------|--3----------------|


                                                                 
-------------------|------------------------|-------------------|
-------------------|------------------3--5--|-------------------|
-------------------|------------3--5--------|-------------------|
--3----------------|--3----3----------------|--3----------------|


                                                                 
-------------------|-------------------|------------------------|
-------------------|-------------------|------------------3--5--|
-------------------|-------------------|------------3--5--------|
--3----------------|--3----------------|--3----3----------------|


                                                            
-------------------|-------------------|-------------------|
-------------------|-------------------|-------------------|
-------------------|-------------------|-------------------|
--3----------------|--3----------------|--3----------------|


                                                                   
------------------------||--------------------|-------------------|
------------------3--5--||*-------------------|-------------------|
------------3--5--------||*-------------------|-------------------|
--3----3----------------||---3----------------|--3----------------|


                                                                 
-------------------|------------------------|-------------------|
-------------------|------------------3--5--|-------------------|
-------------------|------------3--5--------|-------------------|
--3----------------|--3----3----------------|--3----------------|


                                                                 
-------------------|-------------------|------------------------|
-------------------|-------------------|------------------3--5--|
-------------------|-------------------|------------3--5--------|
--3----------------|--3----------------|--3----3----------------|


                                                              
|--------------------|-------------------|-------------------|
|*--2----------------|--0----------------|-------------------|
|*-------------------|-------------------|--4----------------|
|--------------------|-------------------|-------------------|


                                                             
--------------------|-------------------|-------------------|
--------------------|--2----------------|--0----------------|
--3----3------------|-------------------|-------------------|
--------------------|-------------------|-------------------|


                                                             
-------------------|--------------------|-------------------|
-------------------|--------------------|--2----------------|
--4----------------|--3----3------------|-------------------|
-------------------|--------------------|-------------------|


                                                             
-------------------|-------------------|--------------------|
--0----------------|-------------------|--------------------|
-------------------|--4----------------|--3----3------------|
-------------------|-------------------|--------------------|


                                                            
-------------------|-------------------|-------------------|
--2----------------|--0----------------|-------------------|
-------------------|-------------------|--4----------------|
-------------------|-------------------|-------------------|


                                                             
--------------------|-------------------|-------------------|
--------------------|--2----------------|--0----------------|
--3----3------------|-------------------|-------------------|
--------------------|-------------------|-------------------|


                                                             
-------------------|--------------------|-------------------|
-------------------|--------------------|--2----------------|
--4----------------|--3----3------------|-------------------|
-------------------|--------------------|-------------------|


                                                             
-------------------|-------------------|--------------------|
--0----------------|-------------------|--------------------|
-------------------|--4----------------|--3----3------------|
-------------------|-------------------|--------------------|


                                                            
-------------------|-------------------|-------------------|
--2----------------|--0----------------|-------------------|
-------------------|-------------------|--4----------------|
-------------------|-------------------|-------------------|


                                                             
--------------------|-------------------|-------------------|
--------------------|--2----------------|--0----------------|
--3----3------------|-------------------|-------------------|
--------------------|-------------------|-------------------|


                                                                       
-------------------|--------------------|--------------|--------------|
-------------------|--------------------|--------------|--------------|
--4----------------|--3----3------------|--------------|--------------|
-------------------|--------------------|--------------|--------------|


                                                                           
--------------|--------------|--------------|--------------|--------------|
--------------|--------------|--------------|--------------|--------------|
--------------|--------------|--------------|--------------|--------------|
--------------|--------------|--------------|--------------|--------------|


                                                                             
--------------|--------------|--------------|--------------||---------------|
--------------|--------------|--------------|--------------||*--------------|
--------------|--------------|--------------|--------------||*--------------|
--------------|--------------|--------------|--------------||---------------|


                                                                           
--------------|--------------|--------------|--------------|--------------|
--------------|--------------|--------------|--------------|--------------|
--------------|--------------|--------------|--------------|--------------|
--------------|--------------|--------------|--------------|--------------|


                                                                  
--------------|---------------||-----------------|--4------------|
--------------|--------------*||*---------2------|---------------|
--------------|--------------*||*--0-------------|---------------|
--------------|---------------||-----------------|---------------|


                                                                               
--------------|--------------|----------------|--3------------|--2------------|
--------------|--------------|----------------|---------------|---------------|
--------------|--------------|---------5------|---------------|---------------|
--------------|--------------|--3-------------|---------------|---------------|


                                                                   
---------------||--2------------|--------------||-----------------|
--------------*||---------------|--------------||*----------------|
--------------*||---------------|--------------||*--5--------5/---|
---------------||---------------|--------------||-----------------|


                                                                    
---------------|-----------------|--2--------2-----|---------------|
---------------|--------------2--|--------------2--|---------------|
---------------|-----------4-----|-----------------|--0------------|
--1/-----------|--5--------------|-----------------|---------------|


                                                                    
---------------|---------------|----------------||-----------------|
---------------|---------------|---------------*||*----------------|
--2------------|--1------------|---------------*||*--5--------5/---|
---------------|---------------|--3-------------||-----------------|


                                                                    
---------------|-----------------|--2--------2-----|---------------|
---------------|--------------2--|--------------2--|---------------|
---------------|-----------4-----|-----------------|--0------------|
--1/-----------|--5--------------|-----------------|---------------|


                                                                                
---------------|---------------|----------------||--------------|--------------|
---------------|---------------|---------------*||--------------|--------------|
--2------------|--1------------|---------------*||--------------|--------------|
---------------|---------------|--3-------------||--------------|--------------|


                                                                 
|-----------------|--4------------|--------------|--------------|
|*---------2------|---------------|--------------|--------------|
|*--0-------------|---------------|--------------|--------------|
|-----------------|---------------|--------------|--------------|


                                                                3x
----------------|--3------------|--2------------|---------------||
----------------|---------------|---------------|--------------*||
---------5------|---------------|---------------|--------------*||
--3-------------|---------------|---------------|---------------||


                                               
---------------|--------------|--------------||
---------------|--------------|--------------||
--0------------|--------------|--------------||
---------------|--------------|--------------||

Enjoy





Comments


Popular Opeth tabs & chords
The Amen Corner Bass Tabs
To Rid The Disease 1 Bass Tabs
Burden Chords
To Rid The Disease Chords
Black Rose Immortal Tabs
Drapery Falls 1 Tabs
I Feel The Dark Tabs
Isolation Years Tabs
Madrigal Tabs
Soldier Of Fortune Tabs


Song lyrics



↑ Back to top | Tablatures and chords are parodies/interpretations of the original songs. You may use it for private study, scholarship, research or language learning purposes only
© 2014 AZChords.com Contact us | Privacy policy | DMCA | Add/correct tabs | Request tabs | Top 50 tabs