>
 >
To Rid The Disease

To Rid The Disease Guitar Tabs

Opeth - To Rid The Disease chords, tabs, tablatures, lyrics

Guitar lessons | Add/correct | Request | Top 50 tabs Artists:  A B C D E F G H I J K L M N O P Q R S T U V W X Y Z 0-9

To Rid The Disease Guitar Tabs – Opeth

CD, Sheet music, Poster

Do you like To Rid The Disease? Share with your friends now
Bass TabsBass Tabs v2Bass Tabs v3Bass Tabs v4ChordsTabsUkulele
Tune guitars to Standard (EADGBE)
*Note - This is the live version of To Rid The Disease. Opeth plays 
 this version off of the Lamentations-Live at the Sheperd's bush
 Empire 2003 DVD.

.  - palm mute           /  - slide up to     ah - Artificial harmonics
\  - slide down to       ~  - vibrato
h  - hammer on           b  - Bend
p  - pull off            Suffixes for bend
t  - tap                 f  - full bend    h - half bend
ph - pinched harmonic    q  - quarter bend t - tap bend
*  - see comment         ^  - Hold bend    r release bend
x  - Staccato            ~  - vibrato bend
,  - slight palm mute    () - ghost note, sustained note
"  - tremolo note         - Trill


Riff 1  guitar 2     A                      B
|-----6-----6-----5-----5-----5---|-----5-----5-----3-----3-----3---|
|---3---3-----3-----3-----3-----3-|---2---2-----2-----2-----2-----2-|
|-0-------0-----0-----0-----0-----|-0-------0-----0-----0-----0-----|
|---------------------------------|---------------------------------|10x
|---------------------------------|---------------------------------|
|---------------------------------|---------------------------------|


Riff 2 both guitars  A                      B
|---------0---------------0-------|---------0---------------5-------|
|-------8---8-------7-------7-----|---8-------8-------5-------5---5-|
|---9---------9-------0-------0---|-----0-------0-------0-------0---|
|-----9---------9-------7-------7-|-------7-------7-------4---------|4x
|-----------------5---------------|-4---------------3---------------|
|-0-------------------------------|---------------------------------|

Repeat
Riff 1 8x
Riff 2 5x
Riff 2 A


The solo guitar 2
|---------0---------------5--------------------------------------------|
|---8-------8-------5-------5---5------------0---------------0---------|
|-----0-------0-------0-------0------------0---0-----------0-----0-----|
|-------7-------7-------4----------------2-------2-------2---------2---|
|-4---------------3--------------------2-----------2---2-------------2-|
|---------------------------------0------------------0-----------------|
|
|        guitar 1
|----------------------------------------------------------------------|
|---------------7h8---7h8/10--7h8-------------------7h8---7-8/10-8h10--|
|-------------------9-------------9---------------------9--------------|
|----------------------------------------------------------------------|
|----------------------------------------------------------------------|
|----------------------------------------------------------------------|


|------------------------------------------------------------------------|
|-----------4---------------4--------------------3---------------2-------|
|--------4----4-----------4---4---------------4----4-----------4---4-----|
|------6--------6-------6--------6----------5--------5-------2-------2---|
|----6------------6---6-------------6-----5------------5---2-----------2-|
|-4-----------------4------------------3-----------------0---------------|
|
|
|------------------------------------------------------------------------|
|-9----------------------------------------------------------------------|
|------------8---6-8-------------------7------6h7p6--4-------------------|
|--------------9------11--8--9~------------------------4--2--------------|
|-----------------------------------------------------------(4)----------|
|------------------------------------------------------------------------|


|---------0----------------------0-------------------0-------------2-|
|-------3---3-------------3--------3---------------0----0----------2-|
|-----4-------4---------3------------3-----------3--------3--------3-|
|---4-----------4-----4----------------4-------4------------4------4-|
|-2---------------1--------------------------4----------------4----4-|
|------------------------------------------2--------------------2--2-|
|                                                                  * strum 
|                                                                   slowly
|--------------------------------------------------------------------|
|-----0-2--2h3p2-2---2-3h5p3-2---------------------------------------|
|------------------4-----------4-------------------------------------|
|--------------------------------4-2-0----------------------7--------|
|-0-2----------------------------------2-4-5--4-5-7--5-7-9----9--~---|
|--------------------------------------------------------------------|
 

keyboard solo

Riff 3 guitar 2
|----------------------------------------------------|
|-----5---5--------5---5--------5---5--------5---5---|
|---5---5---5----5---5---5----5---5---5----5---5---5-|
|-9------------7------------9------------7-----------|
|----------------------------------------------------|
|----------------------------------------------------|
                                                       
|----------------------------------------------------|
|-----3---3--------3---3--------3---3--------3---3---|
|---3---3---3----3---3---3----3---3---3----3---3---3-|
|-7------------5------------7------------5-----------|
|----------------------------------------------------|
|----------------------------------------------------|

Repeat 
Riff 3

Riff 4 both guitars 
|--1--|--0--|--0--|--0--|--0--|--0--|--0--|-------|
|--3--|--3--|--3--|--2--|--1--|--0--|--0--|-------|
|--2--|--2--|--2--|--0--|--2--|--0--|--2--|-------|4x
|--0--|--0--|--3--|--2--|--2--|--2--|--0--|-------|
|--0--|--0--|--0--|--0--|--0--|--2--|--1--|-------|
|--0--|--0--|--0--|--0--|--0--|--0--|--0--|--3-3--|
strum these chords.. (they use some effect)

Repeat 
Riff 3 4x

Ending..
|-------5---|
|-----5---5-|
|---6-------|
|-7---------|
|-----------|
|-----------|


The end...





Comments


Popular Opeth tabs & chords
Bleak Bass Tabs
Patterns In The Ivy Bass Tabs
To Rid The Disease 1 Bass Tabs
A Fair Judgement Tabs
Ghost Of Perdition 1 Tabs
Hessian Peel Partial Intro Tabs
Hope Leaves Tabs
Leper Affinity 2 Tabs
Porcelain Heart 2 Tabs
To Bid You Farewell Tabs


Song lyrics



↑ Back to top | Tablatures and chords are parodies/interpretations of the original songs. You may use it for private study, scholarship, research or language learning purposes only
© 2014 AZChords.com Contact us | Privacy policy | DMCA | Add/correct tabs | Request tabs | Top 50 tabs