>
 >
The Twilight Is My Robe

The Twilight Is My Robe Guitar Tabs

Opeth - The Twilight Is My Robe chords, tabs, tablatures, lyrics

Guitar lessons | Add/correct | Request | Top 50 tabs Artists:  A B C D E F G H I J K L M N O P Q R S T U V W X Y Z 0-9

The Twilight Is My Robe Guitar Tabs – Opeth

CD, Sheet music, Poster

Do you like The Twilight Is My Robe? Share with your friends now
TabsTabs v2
Legend
------

 h  = hammer-on
 p  = pull-off
 b  = bend
 r  = bend release
 /  = slide up/down
<5> = natural harmonic
[5] = artifical harmonic
 ~  = vibrato
 tr = trill





E------------------------------------------------------------------------------------------------------------
B------------------------------------------------------------------------------------------------------------
G--2----2----------------------------------------------------------------------------------------------------
D--2----2----------------------------------------------------------------------------------------------------
A--0----0----0--0-0-0-0-0--0-0-0-0-0--0-0-0-0-0--0-0-0-0-0--0-0-0-0-0--0-0-0-0-0--0-0-0-0-0-0-0-0-0-0-0------
E------------------------------------------------------------------------------------------------------------



    Riff A                          x4        Riffs A + B played simultaniously                Riff B

E|--||-----------------------------------------------------||----------------------------------||------------
B|--||*---------------------------------------------------*||----------------------------------||*-----------
G|--||-------------------------------------------------2---||----------------------------------||------------
D|--||-------------------------------------------------2---||----------------------------------||---7--7-7-7-
A|--||*--0--0-0-2-3-2--2-2-3-5-3--3-3-5-7-5--0-3-0-2-0-0--*||----------------------------------||*-----------
E|--||-----------------------------------------------------||----------------------------------||------------



                                                                                                       x6

E|----------------------------------------------------||------------------------------------------||----------
B|---------------------------------------------------*||------------------------------------------||*---------
G|------------------------------------------------2---||--------------------------------------4-4-||--------4-
D|-7--5--5-5-5-5--2--2-2-2-2--0--0-0-0-0----------2---||----------------------------2--3---2--2-2-||----5-7---
A|----------------------------------------3-0-2-0-0--*||----------------------------2--3---2------||*---------
E|----------------------------------------------------||----------------------------0--1-0-0------||----------





E|---------------------------------------------||------------------------------||--7---------7------||-------
B|--------------------------------------------*||------------------------------||*------6----------*||-------
G|--4------------------------------------------||------------------------------||-------------------||-------
D|----7-5-4-5-4--------4-4h5-5-5-4-4h5-4-------||---5-4-2----------------------||-------------------||-------
A|--------------5-5--5-------------------5----*||---5-4-2----------------------||*-----------------*||-------
E|-----------------------------------------7---||---3-2-0----------------------||-------------------||-------



                                                                                                 x4

E|-7-------------------7------------------------------------------------------------||-----------------------
B|-8-------------------8------------------------------------------------------------||*----------------------
G|-9-------------------9--------------------------------------9-9\7-3---------------||---------5-7/9---5-4---
D|-9--4-4-5p4-4-4-4h5--9--4-4-5p4-4----x-x-x-x-2---x-x-x-x-2------------------------||---7-5-7-------7-----7-
A|-7-------------------7---------------x-x-x-x-2---x-x-x-x-2--7-7\5-1-----5-6-7-7---||*----------------------
E|-------------------------------------x-x-x-x-0---x-x-x-x-0--------------3-4-5-5---||---5-3-5---------------



                                                                                                    x15

E|--------------------------------------------------------------------||------------------------||-----------
B|-------------------------------------------------------------------*||------------------------||*----------
G|--------------------------------5-7/9-----4-5-7-9-7-5-4-4h5-4-------||-------------------5-4--||---9-------
D|-5-7-----------7p6-6h7-6--7-5-7-------7-7---------------------5-----||-----------7-7-7-5------||-----8-7-7h
A|-----8-8p7-7h8--------------------------------------------------7--*||------------------------||*----------
E|--------------------------5-3-5-------------------------------------||------------------------||-----------



                                        x4

E|---------------||--------||-----------0-------------------0-------3-----1-----0-----------0------3-1-0-----
B|--------------*||--------||*--0h1-----------------0h1---------------1-----1-----1-----0----------------0---
G|---9-----------||--------||---0h2-------2------%--0h2-------2---------2-----2-------2---2------2---------2-
D|-8---8-7-7h8---||--2--2--||-------2-------2-----------2-------2-------------------0------------------------
A|--------------*||--------||*--------0-------0-----------0-------0------------------------------------------
E|---------------||--------||--------------------------------------------------------------------------------



                                                          x4

E|-0-------------------0---------------0-----||--||----------------------------------------------------------
B|------------------------------------------*||--||*---------------------------------------------------------
G|---2---------2-----2---2-----2-----2---2---||--||----------------------------------------------------------
D|-----2-----2---2-2---------2---2-2---------||--||-------9p7---5-7---4-4-5p4--5-5-5-5-5-4h5---4h5---4h5---4h
A|-------0-3---------------2----------------*||--||*--7-7-----7-----7------------------------7-----7-----7---
E|-------------------------------------------||--||----------------------------------------------------------





E|--------------------------------------------------------------------------------------------------------||-
B|-------------------------------------------------------------------------------------------------------*||-
G|--------------------------------------------------------------------------------------------------------||-
D|-5------4h5---4h5---4h5---4h5----5-5-5-5-5-7h9----7h9----7h9----7h9----7h9----9p7\5-7p5\4-5p4\2-4p2p0---||-
A|---7--------7-----7-----7-----7----------------10-----10-----10-----10-----10--------------------------*||-
E|--------------------------------------------------------------------------------------------------------||-



 Rhythm

E|---------------------------------------------------||----------------------------------||------------------
B|---------------------3-3---------------------------||*--------------------------------*||------------------
G|-------------------5-----0------------------3-5-7--||--------------------------3-5-7---||--8---------------
D|--5-7-9--------------------5-3-0--------5-5--------||-------5-5-3-0--------5-5---------||------------------
A|--3-5-7--------------------------1--3-6------------||*--3-6---------1--3-6------------*||------------------
E|---------------------------------------------------||----------------------------------||------------------



                     x4

E|------------||---------------------------------------------||----------------------15-13-11-10-8--6-8-5-6---
B|------------||*------4--------3--------------------4------*||----------------------12---------------------8-
G|------------||---------5--------3--3-5---5-----------5-----||--4-6-7-6-4-2-2h4-----12-----------------------
D|------------||-----5-----5-----------------------------5---||-----------------------------------------------
A|------------||*--3----------1----------3---------3--------*||-----------------------------------------------
E|------------||-----------------------------1-3-4-----------||-----------------------------------------------



                                                                   x3

E|--------------------------------------------------------||--------------------------------------------------
B|-10-6-8-4-6-3-4-3---------1-3/4-3-1---1-3/4-3-1---------||*-------------------------------------------------
G|------------------------3-----------3-----------3-3/5---||---------5---5-3---------------5---5-3-5-5/7------
D|--------------------------------------------------------||---5---5---5-----3-3-----5---5---5----------------
A|--------------------------------------------------------||*--3-6---------5---------3-6---------5---3/5------
E|--------------------------------------------------------||-------------------6-3/6----------------------3/6-



              x4

E|---||--||-------------------||-----------------------------------------------------------------------------
B|--*||--||*-----------------*||-----------------------------------------------------------------------------
G|---||--||---3---------------||----------11-10-8-11-10-8-11-10-8-11-10-8-10-11-11tr13--10--15-15tr13--11-11-
D|---||--||-----5p3-5-5-3-5---||--5---5----------------------------------------------------------------------
A|--*||--||*-----------------*||--3---3----------------------------------------------------------------------
E|---||--||-------------------||-----------------------------------------------------------------------------





E|------------------------------------------------------------------------------------------------------------
B|------------------------------------------------------------------------------------------------------------
G|-10--11-10-8-7-8-4-5-4---4tr5--7tr8--10tr11--8--------------------------------------------------------------
D|--------------------------------------------------13-13-15-16-18-18-16-15-13-----13-15-16-20-16-15p16p15----
A|---------------------------------------------------------------------------------------------------------13-
E|------------------------------------------------------------------------------------------------------------





E------------------------------------------------------------------------------------------------------------
B------------------------------------------------------------------------------------------------------------
G-------------------------------------------------------------15-15-13-11-13-13-11-10-8-10-11p10-15-11-10h11p
D-----13-13-15-16-18-18-16-15-13-13-15-16-20-16-15h16p15------13-13-15-13-15-15-13-12------------------------
A--------------------------------------------------------13--------------------------------------------------
E------------------------------------------------------------------------------------------------------------



                             x4

E|------------------||---------------------------------------------------------------------------------------||-
B|------------------||*-------------------------------------------------------------------------------------*||-
G|-10---------------||---------------------------------------------------------------------------------------||-
D|----8-------------||---1-1-1-1-1-1-1-1-1-3-1-4-4-4-4-4-4-4-4-4-9-9-9-9-9-9-9-9-8-6-8-8-8-8-6-4-3-3-3-3-3---||-
A|------------------||*-------------------------------------------------------------------------------------*||-
E|------------------||---------------------------------------------------------------------------------------||-



                                       x8

E|------------------------------||-----------------------------------------------||--||-----------------------
B|------------------------------||*---------------------------------------------*||--||*----------------------
G|------------------------------||---------5-------5\-0--------------------------||--||-----------------------
D|---8\-------------------3/-6--||-------5---------------4\-0--------------------||--||---5-5--3-3------------
A|---6\--------------6\-3-------||*--3-6-----6\5-5-------5\-1---------2--6p3-3--*||--||*--3-3--1-1------------
E|------------------------------||-----------------------------3-3--3------------||--||-------------3-3-3h6-3-





E|-----||-----------------------------------------------------------------------------------------------------
B|----*||--------------------------------------------------------------------------20p16----------------------
G|-----||-----------10p12-12-12p10p8-----12-10-12-15-17-15-14-14h15p14-------14-15-------18-17\15----17p15----
D|-----||----------------------------10--------------------------------15h17----------------------15-------17-
A|-3--*||-----------------------------------------------------------------------------------------------------
E|-1---||-----------------------------------------------------------------------------------------------------



E|------------------------------------------------------------------------------------------------------------
B|-----13----13----13--------16p13----------------------------------------------------------------------------
G|-----15b17-15b17-15b17--15-------15-13-15p13\12--------------------12-15p12----------12-15p12-12-15b17------
D|-15---------------------------------------------15-13-12-13\-15b16----------15-15b16---------------------17p
A|------------------------------------------------------------------------------------------------------------
E|------------------------------------------------------------------------------------------------------------




E|--------------------------------------------------------------------------------------------------------------
B|--------------------------------------------------------------------------13-15-16-20----20b22-20-20b22-20b22-
G|----------------13-15-13-15-17-17--19-17-15-17-15h17-15-12h15-12-12-13-15-------------------------------------
D|-15-13-12-10-17-----------------------------------------------------------------------------------------------
A|--------------------------------------------------------------------------------------------------------------
E|--------------------------------------------------------------------------------------------------------------



E|-------------------------------------------------
B|-20b22-20----------------------------------------
G|----------------12---------------------19-17~----
D|-----------9h10----10--/18-17h18-17-15-----------
A|-------------------------------------------------
E|-------------------------------------------------





Comments


Popular Opeth tabs & chords
Blackwater Park 1 Bass Tabs
Damnation 2 Bass Tabs
The Moor Bass Tabs
Windowpane 1 Bass Tabs
To Rid The Disease Chords
A Fair Judgement Tabs
Advent Tabs
Deliverance Tabs
Face In The Snow Tabs
The Lotus Eater Tabs


Song lyrics



↑ Back to top | Tablatures and chords are parodies/interpretations of the original songs. You may use it for private study, scholarship, research or language learning purposes only
© 2014 AZChords.com Contact us | Privacy policy | DMCA | Add/correct tabs | Request tabs | Top 50 tabs