» » »

Opeth, The Apostle In Triumph Tabs (ver.1)

Artists:  A B C D E F G H I J K L M N O P Q R S T U V W X Y Z # 

The Apostle In Triumph Tabs (ver.1)

Opeth Tabs
 Rating:
4/5 (4 votes)
The Apostle In Triumph lessons Tabs too difficult? Try these video lessons and learn fast
                OPETH - APOSTLE IN TRIUMPH (unfinished)
                        From the Album ORCHID



  - pam mute                     /  - slide up to
\  - slide down to                ~  - vibrato
h  - hammer on                    b  - bend
p  - pull off                          Suffixes for bend
ph - pinch harmonic                     f - full bend    h - half bend
*  - see comment                        r - release      t - tap bend
X  - percussion note                    ~ - vibrato bend
@  - slight palm mute             ()  - ghost note, sustained note
"  - tremolo pick until next note

Opeth - The Apostle In Triumph

Tune to E (E,A,D,G,B,E)

    1:30 accoustic guitar
E-------------------------------------|
B-------------------------------------|
G---4-----------------4-5-4---2-2/4-4-|
D-----5-5-5p4-2/4-0---------5---------|
A-------------------2-----------------|
E-------------------------------------|


    1:30 guitar 1
E------------------------------------|
B------------------------------------|
G---4----------------------4-2-------|
D-----5-5-5p4-2/4-0------------4-2-4-|
A-------------------2--2-3-----------|
E------------------------------------|


   1:30 guitar 2
E------------------------------------|-----------|
B------------------------------------|-----------|
G-----4---------------4-5-4----2-4-4-|-4-4-5-4-4-|
D---2---5-5p4/7-5-4----------5-------|-----------|
A------------------------------------|-----------|
E------------------------------------|-----------|


    2:30 guitar 1
E-------------------------------|---------------|
B-------repeat till end---------|---------------|
G-------------------------------|---------------|
D-------------------------------|---------------|
A---7-5-3-2---0-2-3---2-3-5-3-2-|-5-4-2-2-2-2-2-|
E-------------------------------|-3-2-0-0-0-0-0-|


    2:30  guitar 2          play once
E-----------------------------------------------------------------------
B-----------------------------------------------------------------------
G-----------------------------------------------------------------------
D---5-4h5p4-2-4-2-2-2-4-5-4-7-5-9-4h5p4-2-4-2-2-2-4-5-4-7-5-9-7h9p7-5---
A-----------------------------------------------------------------------
E-----------------------------------------------------------------------

E-------------------------------------------------------------------|
B-------------------------------------------------------------------|
G-------------------------------------------------------------------|
D---7-5-4-5-4h5p4\2-2/5-4-7-5-9-7h9p7-5-7-5-4-5-4h5p4\2-2/5-4-7-5-9-|
A-------------------------------------------------------------------|
E-------------------------------------------------------------------|

E-----------------|
B-----------------|
G-----------------|
D---5-4-2-2-2-2-2-|
A-----------------|
E-----------------|

  3:00
E---------------------|
B----Im real *** at--|
G----transcribing-----|
D----accoustic parts--|
A--------!!!----------|
E---------------------|

    3:49 guitar 1
E---------------------|
B---------------------|
G---------------------|
D-------5-4-------5-4-|
A---3-2-------3-2-----|
E---------------------|

    3:49 guitar 2
E---------------------|
B---------------------|
G---------------------|
D---5-4-------5-4-----|
A-------3-2-------3-2-|
E---------------------|


    3:56
E-----------------------------------------------------------------------
B---------------------------5-------4-----------------------------------
G---0-2-4---0-2-2/4-4---4-5---5-4-5---5-4-5-7-5-4-5-6-4-5-9-8-9-8---8---
D-----------------------------------------------------------------------
A-----------------------------------------------------------------------
E-----------------------------------------------------------------------

E--------------------------|
B-----12-10-13-12-10-12-12-|
G---9----------------------|
D--------------------------|
A--------------------------|
E--------------------------|


    4:08
E-----------------------|
B-----------------------|
G-----------------------|
D-----------------------|
A---7-9-10-12-10\9/10\9-|
E---5-7-8--10-8-\7/8-\7-|


    4:12 guitar 1
E---------------------|
B---------------------|
G---------------------|
D-------5-4-------5-4-|
A---3-2-------3-2-----|
E---------------------|

    4:12 guitar 2
E---------------------|
B---------------------|
G---------------------|
D---5-4-------5-4-----|
A-------3-2-------3-2-|
E---------------------|


    4:37
E-----------------------|
B-----------------------|
G-----------------------|
D-----------------------|
A---7-9-10-12-10\9/10\9-|
E---5-7-8--10-8-\7/8-\7-|


   4:40 guitar 1
E-----------------------|
B-----------------------|
G-----------------------|
D-----------------------|
A-------7-7-7-7-5\4-5h7-|
E---7-7-----------------|

    4:40  guitar 2
E-----------------------|
B-----------------------|
G-----4-----------------|
D---4---7-7-7-7-5\4-5h7-|
A-----------------------|
E-----------------------|


 5:06 guitar 1
E-----------------------------------|
B-----------------------------------|
G---------4-4-7-6-6-4-7-7-7p6-6\4-4-|
D---4-4-7---------------------------|
A-----------------------------------|
E-----------------------------------|

    5:06 guitar 2               \/ wrong
E-----------------------------------|
B-----------------------------------|
G-------------------4/7-7-7p6-6\4-4-|
D-------0-5-5-4-2-------------------|
A---2-2-----------------------------|
E-----------------------------------|


    5:42    hate this riff
E-------------------------------------|
B-------------------------------------|
G-------------------------------------|
D-------------------------------------|
A-------------------------------------|
E-------------------------------------|


    6:36 guitar 1
E---------------------------------|
B---------------------------------|
G-----------------3-3-------------|
D---------------------2-2-2h3p2---|
A-----3-2-3---3-2---------------3-|
E---2-----------------------------|

    6:36 guitar 2
E-----------------6-6-------------|
B---------------------5-5-5h6p5---|
G-----5-4-5---5-4---------------5-|
D---4-----------------------------|
A---------------------------------|
E---------------------------------|

    7:26   that violin cr*p
E-------------------------------------|
B-------------------------------------|
G-------------------------------------|
D-------------------------------------|
A-------------------------------------|
E-------------------------------------|

    8:24 guitar 1
E-------------------------------|
B-------------------8-6---------|
G-----------------7-----5-5-7-7-|
D---5-3-5-8-7-3-5---------------|
A-------------------------------|
E-------------------------------|

    8:24 guitar 2
E---------------3---------------|
B-------------------------------|
G---7-5-3-0-3-5-----------------|
D-----------------5-7-8-----5-5-|
A-----------------------8-8-----|
E-------------------------------|

    9:40 solo  (beginning)
E-----------------------------------------------------------------|
B----------------8-6h8p6-4----------------6-8-8/9-8-6-8-8---------|
G-----7-5-7^-7-5-----------7-5-5/7^--???--------------------------|
D-----------------------------------------------------------------|
A-----------------------------------------------------------------|
E-----------------------------------------------------------------|


    10:17 guitar 1
E-------------------------------------|
B-------------------------------------|
G-------------------------------------|
D-----------------------------7-------|
A---8-7-6-5-5-5-3-5/8-6-6-6-8---8-6---|
E---6-5-4-3---------------------------|

 10:17 guitar 2
E-------------------------------------|
B-------------------------------------|
G-------------------------------------|
D-------------------------------------|
A---8-7-6-5---------6---6--3--3---5---|
E---6-5-4-3---3-----------------------|

    10:55 solo
E-----------------------------------------------------------------------
B---------------------------------------8-8-6---------------------------
G---7-7-5-7/8\7-5-7-5---5-7-7-5-7/8\7-5-------8-7-7-5-3-----------------
D---------------------8---------------------------------5---5-3---------
A---------------------------------------------------------------6-3-----
E-----------------------------------------------------------------------
                                                              11:20
E-------------------------------------------------------------5-----5---
B---------------------------------------------3--------------?--3-3-----
G--------------------------------------??--??---??--?---??-??-----------
D-----------------6-6----------------??--??-------??--5-----------------
A---3-5-6---3-5-6-----2-3-5-5-3-5---------------------------------------
E---------4-------------------------------------------------------------
                                       12:00
E-----3-----------10-----------------------10-10-8-10-11-10-8-10-8------
B---3---1-----8--------??????????????????--------------------------9----
G-----------------------------------------------------------------------
D-----------------------------------------------------------------------
A-----------------------------------------------------------------------
E-----------------------------------------------------------------------

E---8-10-10-8-10-11-10-8-10-8---------|
B-----------------------------9-8-6-8-|
G-------------------------------------|
D-------------------------------------|
A-------------------------------------|
E-------------------------------------|
            
Submit corrections

comments powered by Disqus
↑ Back to top | Opeth Tabs for The Apostle In Triumph. Lyrics for acoustic guitar and electric guitar. Tablatures and chords are parodies/interpretations of the original songs. You may use it for private study, scholarship, research or language learning purposes only