>
 >
Serenity Painted Death

Serenity Painted Death Guitar Tabs

Opeth - Serenity Painted Death chords, tabs, tablatures, lyrics

Guitar lessons | Add/correct | Request | Top 50 tabs Artists:  A B C D E F G H I J K L M N O P Q R S T U V W X Y Z 0-9

Serenity Painted Death Guitar Tabs – Opeth

CD, Sheet music, Poster

Do you like Serenity Painted Death? Share with your friends now
TabsTabs v2Tabs v3
Opeth - Still Life
Serenity Painted Death v2.0


(tab restructured by Holger Stief in over two hours of hard work! -Jan 24th, 2003)

Note: I haven't had the time for checking the riffs for any mistakes, so far I have only
put some structure and riff related infos into the tab to make it smaller and easier to read,
the former version really was a pain in the ass to read. I have also removed the bass lines...

If not statet otherwise, the first bar is guitar 1 and the second bar is guitar 2.




Riff A (x6)
E  :-----------------------------|----------------------|
B  :-----------------------------|----------------------|
G  :10-10-10-10-10-10-10-10-10-10|10-9-9-9-9-9-9-5---7--|
D  :-----------------------------|----------------------|
A  :-8--8--8--8--8--8--8--8--8--8|-8-7-7-7-7-7-7-3---5--|
E  :-----------------------------|----------------------|


E  :-----------------------------|----------------------|
B  :-----------------------------|----------------------|
G  :-7--7--7--7--7--7--7--7--7--7|-7---7-7-7-7-7-7-7-7-7|
D  :-----------------------------|----------------------|
A  :-5--5--5--5--5--5--5--5--5--5|-5---5-5-5-5-5-5-5-5-5|
E  :-----------------------------|----------------------|

= = = = = = = = = = = = = = = = = = = = = = = = = = = = = = = = = = = = = = =


E  :-----------------------------|------------------------------|
B  :---------------10-10-10-10-10|11-10-----8----10--8-10-------|
G  :-9--9--9--9--9---------------|------------------------10-\-7|
D  :----------------7--7--7--7--7|-8--7-----5-----7-------------|
A  :-7--7--7--7--7---------------|------------------------------|
E  :-----------------------------|------------------------------|


E  :-----------------------------|------------------------------|
B  :-----------------------------|------------------------------|
G  :-----------------------------|------------------------------|
D  :10-10-10-10-10-10-10-10-10-10|12-12-12-12-12-12-12-12-12--12|
A  :-----------------------------|------------------------------|
E  :-8--8--8--8--8--8--8--8--8--8|10-10-10-10-10-10-10-10-10--10|

end of Riff A



Riff B (x4)
E  :-----------------------|-----------------------|
B  :-----------------------|-----------------------|
G  :8-----------8---6---4--|7-----------6-------4--|
D  :-----------------------|-----------------------|
A  :-----------------------|-----------------------|
E  :-----------------------|-----------------------|


E  :-----------------------|-----------------------|
B  :-----------------------|-----------------------|
G  :-----------------------|-----------------------|
D  :6-6-6-6-6-6-6-6-6-6-6-6|5-5-5-5-5-5-5-5-5-5-5-5|
A  :-----------------------|-----------------------|
E  :4-4-4-4-4-4-4-4-4-4-4-4|3-3-3-3-3-3-3-3-3-3-3-3|

= = = = = = = = = = = = = = = = = = = = = = = = = = = = = = = = = = = = = = =

E  :-----------------------|------------------------|
B  :-----------------------|------------------------|
G  :7-----------9----------|------------------------|
D  :-----------------------|10-9-7------------------|
A  :-----------------------|------------------------|
E  :-----------------------|------------------------|


E  :-----------------------|------------------------|
B  :-----------------------|------------------------|
G  :7-7-7-7-7-7-7-7-7-7-7-7|------------------------|
D  :-----------------------|-7-7-7-7-7-7-7-7-7-7-7-7|
A  :5-5-5-5-5-5-5-5-5-5-5-5|------------------------|
E  :-----------------------|-5-5-5-5-5-5-5-5-5-5-5-5|


Bridge
E  :------------|---------------|--------------|------------|----------------|
B  :------------|---------------|--------------|------------|----------------|
G  :------------|------10-9-7-9-|--------------|------------|----------------|
D  :9-----------|---------------|(9)-----------|------------|----------------|
A  :------------|---------------|--------------|------------|----------------|
E  :------------|---------------|--------------|------------|----------------|


E  :------------|---------------|------------0-|------------|----------------|
B  :------------|---------------|----------0---|0-----------|----------------|
G  :------------|---------------|--------0-----|------------|----------------|
D  :2-2-*-6-6-*-|9--8-----------|------2-------|------------|----------------|
A  :1-1-*-5-5-*-|8--7---8---7---|----2---------|------------|----------------|
E  :0-0-*-4-4-*-|7--6-----------|-0------------|------------|----------------|


Riff C (x2)   (first time guitar 1 only, second time both)
E  :---------------------------|-----------------------------|
B  :---------------------------|-----------------------------|
G  :---------------------------|-----------------------------|
D  :---------------------------|-----------------------------|
A  :---------------------------|-----------------------------|
E  :0-2-2-2-2*0-0-2-0-2-2-2*0-0|0-2-2-2-2*0-0-0-2-2-2-3-2-2-2|



Riff D  (x5)
guitars 1 and 2
E  :---------------------------|------------------------|
B  :---------------------------|------------------------|
G  :------------------------7-7|7-6-6-6-----------------|
D  :---------------------------|---------8-8-8-8-8------|
A  :2-4-4-4-4*2-2-4-2-4-4-4*5-5|5-4-4-4--------------4-4|
E  :0-2-2-2-2*0-0-2-0-2-2-2*---|---------6-6-6-6-6---2-2|


Riff D1
guitars 1 and 2
E  :---------------------------|--------------------------|
B  :---------------------------|--------------------------|
G  :------------------------7-7|7-6-6-6-------------------|
D  :---------------------------|------8--8-8-8-8-8-8*8----|
A  :2-4-4-4-4*2-2-4-2-4-4-4*5-5|5-4-4-4-------------------|
E  :0-2-2-2-2*0-0-2-0-2-2-2*---|---------6-6-6-6-6-6*6----|



Bridge
guitars 1 and 2
E  :-------------------|------------------|
B  :-------------------|------------------|
G  :-------------------|------------------|
D  :-------------------|6--7--9-*---------|
A  :------------4------|4--5--7-*---------|
E  :2-2-1-1-4-4---7----|------------------|


Riff E  (x6)
guitars 1 and 2
E  :------------------(16)---|--------------------------|
B  :-------------------------|--------------------------|
G  :-------------------------|--------------------------|
D  :-------------------------|--------------------------|
A  :--------------4-5----|4---3-------------3-4-6-7-|
E  :4--3-3-0-2--0-----------0|2-0-1-4-3-0-3-4-0---------|


Bridge
guitars 1 and 2
E  :--------------------|
B  :--------------------|
G  :--------------------|
D  :8---------------8*8*|
A  :7---------------7*7*|
E  :6---------------6*6*|


Riff F (x4)
E  :----7-----5-4---------7-8---7---11-8-7---14---13-14-13-----------|
B  :5-------6-------6---5----------------------------------13-12-11--|
G  :----------------------------------------------------------------9|
D  :-----------------------------------------------------------------|
A  :-----------------------------------------------------------------|
E  :-----------------------------------------------------------------|


E  :-----------------------------------------------------------------|
B  :-----------------------------------------------------------------|
G  :------------------------8*8-8*8--8*8*8-8*-8-8--*--8--8--*--8--8-8|
D  :8-8-8-8-8*8*8-8-8-8-8*8*7*7-7*7--7*7*7-7*-7-7--*--7--7--*--7--7-7|
A  :7-7-7-7-7*7*7-7-7-7-7*7*6*6-6*6--6*6*6-6*-6-6--*--6--6--*--6--6-6|
E  :6*6-6*6-6*6*6*6-6*6-6*6*-----------------------------------------|



Riff G (x2)
E  :------------7---|------------7-8-|5-7--------------|----------------|
B  :----------------|----------------|----7-8-10-8-7-8-|7---7-5-------3-|
G  :9---------------|----------------|-----------------|--7-------------|
D  :----------------|----------------|-----------------|----------------|
A  :----------------|----------------|-----------------|----------------|
E  :----------------|----------------|-----------------|----------------|


E  :----------------|----------------|-----------------|----------------|
B  :----------------|----------------|-----------------|----------------|
G  :----------------|----------------|-----------------|7---------7-----|
D  :----------------|----------------|-----------------|7---7-----7-----|
A  :2-------------7-|--------------7-|7--------7-------|5---5---5-5---5-|
E  :0-------2-4-5---|0---------4-5---|5---5-5--5---5-5-|----------------|

= = = = = = = = = = = = = = = = = = = = = = = = = = = = = = = = = = = = = = = =


E  :--------------------|-----------------|----------------|----------------|
B  :5-------------------|-----------------|5-----3---------|----------------| *
G  :--------------------|-----------------|------------2-0-|2-4-------------|
D  :--------------------|-----------------|----------------|----------------| *
A  :--------------------|-----------------|----------------|----------------|
E  :--------------------|-----------------|----------------|----------------|


E  :--------------------|-----------------|----------------|----------------|
B  :--------11-11-10-10-|10-8-8-----------|----------------|--------5-------| *
G  :--------------------|-----------------|----------------|----------5-4---|
D  :---------8--8--7--7-|-7-5-5-----------|----------------|----------------| *
A  :2-------------------|---------5-------|----------------|3---------------|
E  :0-------------------|---------6-------|0-----3-----5---|----------------|

end of Riff G

repeat Riff G !without! lead part (both guitars play the part of guitar 2 from above) (x2)


repeat Riff G !with! lead part (x2)


Bridge (acoustic)
E  :----------------------------0---2-----2|3-5-3-5-7---|
B  :----------------0-0-------0---0---0-0--|--------0---|
G  :*-------------------0------------------|------------|
D  :-----(4)(2)--(2)------2----------------|------------|
A  :---------------------------------------|------------|
E  :---------------------------------------|------------|


E  :---------------------------------------|------------|
B  :---------------------------------------|------------|
G  :---------------------------------------|------------|
D  :-----------2------4-2-2-1--------------|------------|
A  :---2-----------------------------------|------------|
E  :0--------------------------------------|------------|


Riff H (acoustic) (x6)

E  :-------------------------------------------------|
B  :5-----------------------5-1-0--------------------|
G  :-------------------------------------------------|
D  :-------------------------------------------------|
A  :-------------------------------------------------|
E  :-------------------------------------------------|


E  :----------------------------------------8--7--4--|
B  :------------------------5------------------------|
G  :------------5---4---4-5---5-4-----5---5-5--4-----|
D  :--7---7---7---7---7-------------7-7-7------------|
A  :0---0---0---------------------0------------------|
E  :-------------------------------------------------|


Riff I1 (acoustic) (x4)
E  :--------------------|----------------|
B  :--------------------|----------------|
G  :--------------------|----------------|
D  :--------------------|----------------|
A  :--------------------|----------------|
E  :--------------------|----------------|
   Weird effect used on guitar 1, Can't be tabbed

E  :--------------------|----------------|
B  :----3---------3---3-|5---3-----------|
G  :----4---------4-----|----4-----------|
D  :4-------4-4---------|----------------|
A  :2-----2---2---------|2------2---4----|
E  :--------------------|-------3---5-0--|



Riff I2 (acoustic)
E  :---------------------|---------------------|---------------------|
B  :---------------------|---------------------|---------------------|
G  :---------------------|---------------------|---------------------|
D  :---------------------|---------------------|---------------------|
A  :---------------------|---------------------|---------------------|
E  :---------------------|---------------------|---------------------|
   Same here

E  :---------------------|---------------------|---------------------|
B  :---------------------|---------------------|---------------------|
G  :---------------------|---------------------|---------------------|
D  :---------------------|---------------------|---------------------|
A  :-------------4--3----|-------------4--3----|-------------4--3----|
E  :0-3-(3)-3--3-------6-|0-3-(3)-3--3-------6-|0-3-(3)-3--3-------6-|

= = = = = = = = = = = = = = = = = = = = = = = = = = = = = = = = = = = = = = =

E  :---------------------|---------------------|---------------------|
B  :---------------------|---------------------|---------------------|
G  :---------------------|---------------------|---------------------|
D  :---------------------|---------------------|---------------------|
A  :---------------------|---------------------|---------------------|
E  :---------------------|---------------------|---------------------|


E  :---------------------|---------------------|---------------------|
B  :---------------------|---------------------|---------------------|
G  :---------------------|---------------------|------8----8---7-----|
D  :---------------------|---------------------|-----10---10--10-----|
A  :-------------4--3----|-------------4--3----|---------------------|
E  :0-3-(3)-3--3-------6-|0-3-(3)-3--3-------6-|8--8----8------------|


Riff J1 (x2)
guitars 1 and 2
E  :------------------------------------|
B  :------------------------------------|
G  :6-6-6-6-6-6-*-6-6-6-6-6-6-*-6-6-6-*-|
D  :5-5-5-5-5-5-*-5-5-5-5-5-5-*-5-5-5-*-|
A  :4-4-4-4-4-4-*-4-4-4-4-4-4-*-4-4-4-*-|
E  :------------------------------------|


Riff J2: (x2)
guitars 1 and 2
E  :------------------------------------|
B  :------------------------------------|
G  :9-9-9-9-9-9-*-9-9-9-9-9-9-*-9-9-9-*-|
D  :8-8-8-8-8-8-*-8-8-8-8-8-8-*-8-8-8-*-|
A  :7-7-7-7-7-7-*-7-7-7-7-7-7-*-7-7-7-*-|
E  :------------------------------------|


repeat Riff J1 (x2)


Riff J3
guitars 1 and 2
E  :------------------------------------|------------------------------------|
B  :------------------------------------|------------------------------------|
G  :9-9-9-9-9-9-*-9-9-9-9-9-9-*-9-9-9-*-|9-9-9-9-9-9-*-9-9-9-9-9-9---8---7---|
D  :8-8-8-8-8-8-*-8-8-8-8-8-8-*-8-8-8-*-|8-8-8-8-8-8-*-8-8-8-8-8-8---7---6---|
A  :7-7-7-7-7-7-*-7-7-7-7-7-7-*-7-7-7-*-|7-7-7-7-7-7-*-7-7-7-7-7-7---6---5---|
E  :------------------------------------|------------------------------------|



repeat: Riff J1 (x2)
        Riff J2 (x2)
        Riff J1 (x2)


then into:

E  :------------------------------------|--------------------------------7-8-|
B  :------------------------------------|------------------------------7-----|
G  :9-9-9-9-9-9-*-9-9-9-9-9-9-*-9-9-9-*-|9-9-9-9-9-9-*-9-9-9-9-9-9-----------|
D  :8-8-8-8-8-8-*-8-8-8-8-8-8-*-8-8-8-*-|8-8-8-8-8-8-*-8-8-8-8-8-8---9-------
A  :7-7-7-7-7-7-*-7-7-7-7-7-7-*-7-7-7-*-|7-7-7-7-7-7-*-7-7-7-7-7-7-----------|
E  :------------------------------------|------------------------------------|

E  :------------------------------------|------------------------------------|
B  :------------------------------------|------------------------------------|
G  :9-9-9-9-9-9-*-9-9-9-9-9-9-*-9-9-9-*-|9-9-9-9-9-9-*-9-9-9-9-9-9-----------|
D  :8-8-8-8-8-8-*-8-8-8-8-8-8-*-8-8-8-*-|8-8-8-8-8-8-*-8-8-8-8-8-8-----------|
A  :7-7-7-7-7-7-*-7-7-7-7-7-7-*-7-7-7-*-|7-7-7-7-7-7-*-7-7-7-7-7-7-----------|
E  :------------------------------------|------------------------------------|


_____________________________________________________________________________

Solo part (from here on everything is only played once):

E  :7-----------7-8-|10-------10-8-7---|-------------------|
B  :----------------|----------------8-|-8---6-------------|
G  :----------------|------------------|---------------5---|
D  :----------------|------------------|-------------------|
A  :----------------|------------------|-------------------|
E  :----------------|------------------|-------------------|


E  :----------------|------------------|-------------------|
B  :----------------|------------------|-------------------|
G  :----------------|------------------|-------------------|
D  :9---------------|-9----------------|10-----------------|
A  :9-------9---9---|-9--------9---9---|10-------10---10---|
E  :7-------7---7-7-|-7--------7---7-7-|-8-----8--8----8-8-|


E  :-------------------|--------------22----|-------------------------|
B  :-------------------|--------------------|----10-11-13*--11---10---|
G  :-5-----------------|7--------5-7----|-------------------------|
D  :-------------------|--------------------|-------------------------|
A  :-------------------|--------------------|-------------------------|
E  :-------------------|--------------------|-------------------------|


E  :-------------------|--------------------|-------------------------|
B  :-------------------|--------------------|-------------------------|
G  :-------------------|--------------------|-------------------------|
D  :10-----------------|5-------------------|5------------------------|
A  :10-------10---10---|5--------5----------|5----------5-------------|
E  :-8-----8--8----8-8-|3--------3-----3----|3-------3--3-3----3----3-|


E  :----------------|----------------|10-7---------------5-7-9-10-9-7-9|
B  :----------------|----------------|-----7---------------------------|
G  :7-5---------3---|----2---2-------|-------7-6-4-6-4-7---------------|
D  :----------------|----------------|---------------------------------|
A  :----------------|----------------|---------------------------------|
E  :----------------|----------------|---------------------------------|


E  :----------------|----------------|---------------------------------|
B  :----------------|----------------|---------------------------------|
G  :5-----------3---|----2-----------|---------------------------------|
D  :------------3---|----3-----------|-----------------9---------------|
A  :3-----------1---|--------------7-|-9-----------9---9--------9------|
E  :----------------|--------------5-|-7-----------7---7--------7---7--|


E  :10--9--7---7-9-10-12-14-16-17|18---17-15--------------|
B  :-----------------------------|-----------15--13----11-|
G  :-----------------------------|------------------------|
D  :-----------------------------|------------------------|
A  :-----------------------------|------------------------|
E  :-----------------------------|------------------------|


E  :-----------------------------|------------------------|
B  :-----------------------------|------------------------|
G  :-----------------------------|------------------------|
D  :---------9-------------------|10----------------------|
A  :-9-----9-9---------9---------|10---------10-----10----|
E  :-7-----7-7---------7-----7---|-8-------8--8------8--8-|


E  :-------------13-----------|----------------------|
B  :13---^(15)-----------13-11|----------------------|
G  :--------------------------|12--------12----------|
D  :--------------------------|-------------12-10----|
A  :--------------------------|-------------------10-|
E  :--------------------------|----------------------|


E  :--------------------------|----------------------|
B  :--------------------------|----------------------|
G  :--------------------------|----------------------|
D  :10------------------------|-5--------------------|
A  :10-----------10---10------|-5---------5----------|
E  :-8---------8--8----8--8---|-3---------3-----3----|


E  :------------------------|----------------------|----------------|
B  :------------------------|------------10-11-8---|----------------|
G  :------------------------|---------10-----------|----------------|
D  :------------------------|---10-12--------------|----------------|
A  :12-10-12-13-12-10-12-13-|12--------------------|----------------|
E  :------------------------|----------------------|----------------|


E  :------------------------|----------------------|----------------|
B  :------------------------|----------------------|----------------|
G  :------------------------|----------------------|----------------|
D  :-5----------------------|-6----------------3---|----------------|
A  :-5-----------5----------|-6----------------3---|----------------|
E  :-3--------3--3--3--3--3-|-4----------------1---|----------------|


E  :7-----------5---|----------------|-------------------|
B  :----------------|--------7-------|-8--------8-6------|
G  :------4---------|----4-----------|---------------5---|
D  :----------------|----------------|-------------------|
A  :----------------|----------------|-------------------|
E  :----------------|----------------|-------------------|


E  :----------------|----------------|-------------------|
B  :----------------|----------------|-------------------|
G  :----------------|----------------|-------------------|
D  :9---------------|9---------------|10-----------------|
A  :9-------9---9---|9-------9---9---|10-------10---10---|
E  :7-------7---7-7-|7-------7---7-7-|-8-----8--8----8-8-|


E  :-------------------|-----------------|------------11-10------|
B  :-------------------|-----------------|------------------11-13|
G  :-------------------|3------------2---|-----------------------|
D  :-------------------|-----------------|----5------------------|
A  :-------------------|-----------------|-----------------------|
E  :-------------------|-----------------|-----------------------|


E  :-------------------|-----------------|-----------------------|
B  :-------------------|-----------------|-----------------------|
G  :-------------------|-----------------|-----------------------|
D  :10-----------------|5----------------|5----------------------|
A  :10-------10---10---|5--------5-------|5-------5--------------|
E  :-8-----8--8----8-8-|3--------3---3---|3-----3-3-3--3-----3---|


E  :-----------------------------------|----------------|
B  :11-10-11-10-8-10-8-----------------|----------------|
G  :-------------------10-8-7-8-10-7---|----------------|
D  :-----------------------------------|----------------|
A  :-----------------------------------|----------------|
E  :-----------------------------------|----------------|


E  :-----------------------------------|----------------|
B  :-----------------------------------|----------------|
G  :-5-----------------------------7---|----2-----------|
D  :-------------------------------7---|----3-----------|
A  :-3-----------------------------5---|--------------7-|
E  :-----------------------------------|--------------5-|


E  :12--14--15---14-12-----|17--15--14---15-12-----|15------------13---|
B  :-----------------------|-----------------------|-------------------|
G  :-----------------------|-----------------------|-------------------|
D  :-----------------------|-----------------------|-------------------|
A  :-----------------------|-----------------------|-------------------|
E  :-----------------------|-----------------------|-------------------|


E  :-----------------------|-----------------------|-------------------|
B  :-----------------------|-----------------------|-------------------|
G  :-----------------------|-----------------------|-------------------|
D  :-----------9-----------|-----------9-----------|10-----------------|
A  :-9-------9-9-------9---|-9-------9-9-------9---|10-------10---10---|
E  :-7-------7-7-------7-7-|-7-------7-7-------7-7-|-8-----8--8----8-8-|


E  :-----10-------------|6-8-10-8-6-----8-10-13-8------|
B  :------------------8-|-----------8-------------11-8-|
G  :--------------------|------------------------------|
D  :--------------------|------------------------------|
A  :--------------------|------------------------------|
E  :--------------------|------------------------------|


E  :--------------------|------------------------------|
B  :--------------------|------------------------------|
G  :--------------------|------------------------------|
D  :10------------------|5-----------------------------|
A  :10--------10---10---|5------------5----------------|
E  :-8------8--8----8-8-|3------------3---------3------|


E  :---15-----------------|13---------------18---|-----------------|
B  :13----13-15-13-11-8---|---15-13-11-8-11------|--------------15-|
G  :----------------------|----------------------|-----------------|
D  :----------------------|----------------------|-----------------|
A  :----------------------|----------------------|-----------------|
E  :----------------------|----------------------|-----------------|


E  :----------------------|----------------------|-----------------|
B  :----------------------|----------------------|-----------------|
G  :----------------------|----------------------|-----------------|
D  :-5--------------------|-6----------------3---|-----------------|
A  :-5-----------5--------|-6----------------3---|-----------------|
E  :-3--------3--3--3-3-3-|-4----------------1---|-----------------|

end of solo part.
_____________________________________________________________________________
_____________________________________________________________________________

Riff K (x4)    *only first time
E  :-----------------|----------------|----------------|----------------|
B  :17*--------------|5---------------|----------------|----------------|
G  :-----------------|----------------|7-----------6---|----------------|
D  :-----------------|2---------------|7-----------7---|----------------|
A  :-----------------|----------------|5-----------7---|----------------|
E  :-----------------|----------------|------------5---|----------------|


E  :-----------------|----------------|----------------|----------------|
B  :-5---------------|----------------|----------------|----------------|
G  :-5---------------|----------------|7-----------6---|----------------|
D  :-7---------------|----------------|7-----------7---|----------------|
A  :-7---------------|----------------|5-----------7---|----------------|
E  :-5---------------|----------------|------------5---|----------------|

= = = = = = = = = = = = = = = = = = = = = = = = = = = = = = = = = = = = = = = = =

E  :----------------|----------------|----------------|----------------|
B  :----------------|----------------|1---------------|----------------|
G  :----------------|----------------|2-----2-----2---|----------------|
D  :7---------------|----------------|3-----3-----3---|----------5-5-5-|
A  :7---------------|----------------|3-----3-----3---|----------5-5-5-|
E  :8---------------|----------------|----------------|----------3-3-3-|

                                    >* (only x1,2,3)
E  :----------------|----------------|----------------|----------------|
B  :----------------|----------------|1---------------|----------------|
G  :----------------|----------------|2---------------|----------------|
D  :7---------------|----------------|3---------------|----------5-5-5-|
A  :7---------------|----------------|3---------------|----------5-5-5-|
E  :8---------------|----------------|----------------|----------3-3-3-|
                                    >* (stop here on last repeat and go into bridge)
end of Riff K


Bridge
E  :----------------|----------------|
B  :6-----5-----4---|----------------|
G  :----------------|--7-----3---2---|
D  :3-----2-----1---|----------------|
A  :----------------|--5-----1---0---|
E  :----------------|----------------|


E  :----------------|----------------|
B  :6-----5-----4---|--3-------------|
G  :----------------|--------3---2---|
D  :3-----2-----1---|--0-------------|
A  :----------------|--------1---0---|
E  :----------------|----------------|





Riff E again:  (x4)
E  :------------------(16)---|--------------------------|
B  :-------------------------|--------------------------|
G  :-------------------------|--------------------------|
D  :-------------------------|--------------------------|
A  :--------------4-5----|4---3-------------3-4-6-7-|
E  :4--3-3-0-2--0-----------0|2-0-1-4-3-0-3-4-0---------|

E  :------------------(16)---|--------------------------|
B  :-------------------------|--------------------------|
G  :-------------------------|--------------------------|
D  :-------------------------|--------------------------|
A  :--------------4-5----|4---3-------------3-4-6-7-|
E  :4--3-3-0-2--0-----------0|2-0-1-4-3-0-3-4-0---------|


Bridge (acoustic)
E  :-----------------------------|
B  :-----------------------------|
G  :-----------------------------|
D  :-----------------------------|
A  :*----------------------------|
E  :*----------------------------|

E  :0-------0---------0----------|
B  :--0---------0---0---0---0---0|
G  :----------------------5------|
D  :----2---------------------7--|
A  :------3---3---0--------------|
E  :-----------------------------|


Riff L (acoustic):  (x7)
E  :-------------------------------|
B  :-------------------------------|
G  :-------------------------------|
D  :-------------------------------|
A  :-------------------------------|
E  :-------------------------------|

E  :--0-------0---------0----------|
B  :----0---------0---0---0---0---0|
G  :------------------------5------|
D  :------2---------------------7--|
A  :2-------3---3---0--------------|
E  :-------------------------------|


(and yet another;-) Bridge

E  :4-4-4-3-3-3-0-0-4-4-4-3-3-3-0-0|--5-4-3-5-4-3----------------|
B  :-------------------------------|--------------------7-8---7-8|
G  :-------------------------------|--------------5-7-8-----5----|
D  :-------------------------------|-----------------------------|
A  :-------------------------------|-----------------------------|
E  :-------------------------------|-----------------------------|

E  :-------------------------------|-----------------------------|
B  :-------------------------------|-----------------------------|
G  :-------------------------------|-----------------------------|
D  :-------------------------------|-----------------------------|
A  :-------------------------------|-----------------------------|
E  :4-----3-----0---4-----3-----0--|4-----3---0---4-----3-----0--|


Riff M (acoustic)  (x5)
E  :6--8--10-5--------------|6--3--5-5-6-3----------|
B  :------------------------|-----------------------|
G  :------------------------|-----------------------|
D  :------------------------|-----------------------|
A  :------------------------|-----------------------|
E  :------------------------|-----------------------|

E  :---------------5-9-5----|-----------------------|
B  :-------------4-------4--|--------------------3--|
G  :-----------2-----------2|------------------3---3|
D  :------------------------|----------------5------|
A  :------------------------|8--4--5-5-----5--------|
E  :6--8--10-5--------------|------------3----------|


and then: ending riff (Riff M2)
E  :6--8--10-5--------------|6---------------|
B  :------------------------|----------------|
G  :------------------------|----------------|
D  :------------------------|----------------|
A  :------------------------|----------------|
E  :------------------------|----------------|

E  :---------------5-9-5----|----------------|
B  :-------------4-------4--|----------------|
G  :-----------2-----------2|----------------|
D  :------------------------|----------------|
A  :------------------------|8---------------|
E  :6--8--10-5--------------|----------------|

That's it.





Comments


Popular Opeth tabs & chords
Patterns In The Ivy Chords
Benighted Tabs
Black Rose Immortal Tabs
Burden 3 Tabs
Face In The Snow Tabs
Harvest Tabs
Harvest 2 Tabs
Madrigal Tabs
Serenity Painted Death 1 Tabs
The Twilight Is My Robe Tabs


Song lyrics



↑ Back to top | Tablatures and chords are parodies/interpretations of the original songs. You may use it for private study, scholarship, research or language learning purposes only
© 2014 AZChords.com Contact us | Privacy policy | DMCA | Add/correct tabs | Request tabs | Top 50 tabs