» » »

Opeth, Requiem Bass tabs (ver.1)

Artists:  A B C D E F G H I J K L M N O P Q R S T U V W X Y Z # 

Requiem Bass tabs (ver.1)

Opeth Tabs
 Rating:
4/5 (4 votes)
Requiem  lessons Tabs too difficult? Try these video lessons and learn fast
                (1)
p - pull off
h - hammer on
/ - slide up
\ - slide down
* - harmonic

Tuning: E A D G

|-----------------------------------------------------------------
|-1p0-------------------0-1-------1-0-----------------------------
|-----1---3-----------3---------------3-1-------------1-----------
|-----------------------------------------3---------------3-------

|-----------------------------------------------------------------
|------------------------/6-----------------------------------5-4-
|-4-------6-------7-----------------------------------------------
|-----------------------------------------------------------------

|-----------------------------------------------------------------
|-2-----------2-4-5---------------2-----0-------------------------
|---------------------------------------------0-------------------
|-----------------------------------------------------------------

|-----------------------------------------------------------------
|-----------------2-----------------------------------------------
|-----------------------5-----3-2-------------0-2-------0---------
|-0-------------------------------3---------------2---3---1-------

|---------------------------------------16-17-16h17p16-14---------
|-----9----------------10------------14-------------------17-16---
|---9---------------10------------14------------------------------
|-7---------------8-----------------------------------------------

|---------------------------------------16-17-16h17p16-14-12------
|-----9----------------10------------14----------------------13---
|---9---------------10------------14------------------------------
|-7---------------8-----------------------------------------------
*
|---------------------------------------------5-------------------
|-------------------------------------------------0-----------0h2-
|-----------------------------------------------------------------
|-0---------------0-----------0-2-3-------------------------------

|-----------------------------------------------------------------
|-2-----------2h4-4-----------4h5-2-------------0-2-----------2-0-
|-----------------------------------------------------------------
|-----------------------------------------------------------------

|-----------------------------------------------------------------
|-----------------------------0-2---------------0h2---------------
|-3-----------3-2-0-----------------------------------------------
|---------------------------------0-------------------------------
            
Submit corrections

comments powered by Disqus
↑ Back to top | Opeth Bass for Requiem. Lyrics for acoustic guitar and electric guitar. Tablatures and chords are parodies/interpretations of the original songs. You may use it for private study, scholarship, research or language learning purposes only