>
 >
Requiem

Requiem Guitar Tabs

Opeth - Requiem chords, tabs, tablatures, lyrics

Guitar lessons | Add/correct | Request | Top 50 tabs Artists:  A B C D E F G H I J K L M N O P Q R S T U V W X Y Z 0-9

Requiem Guitar Tabs – Opeth

CD, Sheet music, Poster

Do you like Requiem? Share with your friends now
Bass TabsTabs
TUNING: EADGBE


Well man This song it's a little bit hard to play but it'0s really good,

Play it Fast ,but you have to listen to the song ,cause the ritmn it's
weird 

|----------|---------3-------|---------3-------|-----------------|
|----------|-------4---4-----|-------4---4-----|---------3-------|
|----------|-----5-------5---|-----5-----------|-------3---3-----|
|-1-0------|---5-----------5-|---5-------------|-----5-------5---|
|-----1----|-3---------------|-3-----------3-2-|---5-----------5-|
|----------|-----------------|-----------------|-3---------------|
              
|-------------|---------4-------|---------4-------|
|-------------|-------5---5-----|-------5-5-------|
|------%------|-----6-------6---|-----6---6-------|
|-------------|---6-----------6-|---6-----6-------|
|-------------|-4---------------|-4---------------|
|-------------|-----------------|-----------------|

          
|<4>--------------|-----------------|-----------------|
|<5>--------------|---------0-------|---------0-------|
|<6>--------------|-------0---0-----|-------0---0---0-|
|<6>--------------|-----2-----------|-----0-------0---|
|-----------------|---2-------------|---2-------------|
|-------------3-2-|-0-----------0-2-|-3---------------|

|-----------------|-----------------|-----------------|
|-----------------|-----------------|-----------------|
|-----------------|-----------------|---------0-------|
|-----------------|-----------------|-----0-------0-0-|
|-----------------|-----------------|---2-------------|
|-----------------|-----------------|-3---------------|

|-----------------|-------------*-------|-----------------|
|-----------------|---------5-3p5h3s1---|-----------------|
|-----0-----0-----|-----2---------------|---------0-------|
|---2-----0-------|---2-----------------|-----2-----2---2-|
|-3-----2-----0---|<0>------------------|---2---2-----2---|
|-----------------|---------------------|-0---------------|

|-----------------|---------------------|-----------------|
|-----------------|---------------------|-----------------|
|---------------------|-----2---5-4h5p4p2---|-----------------|
|-----------------|---2-----------------|-----------------|
|-----------------|<0>------------------|-------------2s7-|
|-----------------|---------------------|-0---------------|

|-----------------|-----------------|-----------------|
|-----1-----0---0-|-----------------|-----------------|
|---0-----0---0---|-------0---------|-------2-------1-|
|-----------------|-----0---0-------|-----4-------3---|
|-3-----2---------|---2-------2---0-|---0-------0-----|
|-----------------|-3-----------3---|-2-------1-------|

|-----------------|-----------------|-----------------|
|-----------------|-----------------|-----------------|
|-----------------|-----------------|-----------------|
|-----------------|-----------------|-----------------|
|-7-----5-----3p2-|-----------------|-------3---------|
|-----------------|-3-----------3h5-|-2---2---1-------|
                             
|-----------------|-----------------|-----------------|
|*----0-----0---0-|-----1-----1---1-|-----------------|
|-0-------0---0---|-2p0-----0---0---|-----------------|
|-----------------|-----------------|-5-----4-----2s1-|
|*----------------|-----------------|-----------------|
|-----------------|-----------------|-----------------|

|-----------------|-----------------|-----------------|
|*----------------|-----------------|-----------------|
|-----------------|-----------------|-----------------|
|-----------------|-----------------|-----------------|
|*----2-------3p2-|-0-----------0-2-|-----------------|
|---3-------------|-----------------|-----------------|
         
|-----------------|-0---2---0---0-2-|s3-------3---3-5-|
|----------------*|-0---------------|-----------------|
|-----------------|-0---------------|-----------------|
|1..--------------|-2---------------|-----------------|
|----------------*|-2---------------|-----------------|
|-----------------|-0---------------|-----------------|

|-----------------|-----------------|-----------------|
|----------------*|-----------------|-5-----------5-7-|
|-----------------|---------------4-|-----------------|
|-----------------|-------2s5---7---|-----------------|
|----------------*|-----------------|-----------------|
|-----------------|-0---0-----------|-----------------|

|-7-----7-7-5-----|-----------------|---------0-------|
|-------------5-8-|-7---------------|-------1---1-----|
|-----------------|-------7-7-------|---0-0-------0---|
|-----------------|-----------------|-----------------|
|-----------------|-----------------|-3---------------|
|-----------------|-----------------|-----------------|

|-----------------|-----------------|-----------------|
|-8-----8-8-7-5-8-|-7---------------|-----------------|
|-----------------|-------4-4-----4-|-5-----------5-4-|
|-----------------|-------------7---|-----------------|
|-----------------|-----------------|-----------------|
|-----------------|-----------------|-----------------|

|-----0---0-------|---------7-------|---7-----7-------|
|-------7---7-----|-------8-------8-|<8>--8-----8-----|
|---7-------------|-----9-----------|-----------------|
|-7-----------7---|---9-------------|-------------7-9-|
|-----------------|-7---------------|-----------------|
|-----------------|-----------------|-----------------|

|-----------------|-----------------|-----------------|
|-----------------|-----------------|-----------------|
|-2-----------2-4-|-----------------|-----------------|
|-----------------|-5---------------|-------------7-9-|
|-----------------|-----------------|-----------------|
|-----------------|-----------------|-----------------|

|---------0-------|---------0-------|---------7-------|
|-----8-----8-----|----10----10-----|-------8---8-----|
|---9---9-----9---|--11--11----11---|-----9-------9---|
|10------------10-|12---------------|---9-----------9-|
|-----------------|-----------------|-7---------------|
|-----------------|-----------------|-----------------|

|-----------------|-----------------|-----------------|
|-----------------|-----------------|-----------------|
|-----------------|---------7-------|-----------------|
|10------10--1010-|-7-----------7---|-----------------|
|-----------------|-----------------|-----------------|
|-----------------|-----------------|-----------------|

|-7-------12------|12---------------|
|(8)8-10--12------|12---------------|
|-----------------|-----------------|
|-----------------|-----------------|
|-----------------|-----------------|
|-----------------|-----------------|

|-----------------|-----------------|
|-----------------|-----------------|
|-9---------------|<9>--------------|
|-----------------|-----------------|
|-----------------|-----------------|
|-----------------|-----------------|





Comments


Popular Opeth tabs & chords
Harvest Chords
Burden 3 Tabs
Death Whispered A Lullaby Tabs
Dirge For November Tabs
Hope Leaves 1 Tabs
Madrigal Tabs
The Twilight Is My Robe Tabs
Under The Weeping Moon Tabs
Weakness Tabs
Windowpane 1 Tabs


Song lyrics



↑ Back to top | Tablatures and chords are parodies/interpretations of the original songs. You may use it for private study, scholarship, research or language learning purposes only
© 2014 AZChords.com Contact us | Privacy policy | DMCA | Add/correct tabs | Request tabs | Top 50 tabs