>
 >
Nectar

Nectar Guitar Tabs

Opeth - Nectar chords, tabs, tablatures, lyrics

Guitar lessons | Add/correct | Request | Top 50 tabs Artists:  A B C D E F G H I J K L M N O P Q R S T U V W X Y Z 0-9

Nectar Guitar Tabs – Opeth

CD, Sheet music, Poster

Do you like Nectar? Share with your friends now
Tabs
OPETH - Nectar
                          From the album Morningrise
                         Copyright 1996 - Candlelight
                         Version 1.0 - December 2000


For questions, comments, newest version, or corrections contact me.

Check out Opeth's Domain, with more transcriptions on it :

Check Out DEATH WARP, With More Transcriptions On It:

   key  h - hammer on
        p - pull off
        s - slide
        t - tremolo
      ... - echo
       () - silently, ghost note
       [] - harmonics
        X - repeat aX times
        * - note

OPETH - Nectar

0:08 - 0:37  play 4 times
|--------------------------------------------|
|--------------------------------------------|
|--------------------------------------------| gtr.1
|--------------------------------------------| gtr.2 (acoustic)
|------7p5p0-----7p5p0------5h7h8-----5h7h8--|
|--0-0-------0-0--------6-6-------6-6--------|
|                                            |
|--------------------------------------------|
|--------------------------------------------|
|--------------------------------------------| gtr.1
|------------------------------------8-------| gtr.2 (acoustic)
|------7p5p0-----7p5p0-------5---4-----------|
|--0-0-------0-0---------6-------------------|


0:45 - 1:14  play 4 times
|---------------------------------------------------------------------|
|---------------------------------------------------------------------|
|-------------------------------------------------------4--4h5p4------| gtr.1
|--------------------5--5h7p5-4--4-------------------------------7--7-|
|-9p7-7-7--9p7-7-7-------------------9p7-7-7--9p7-7-7-----------------|
|---------------------------------------------------------------------|
|                                                                     |
|---------------------------------------------------------------------|
|---------------------------------------------------------------------|
|-------------------------------------------------------4--4h5p4------| gtr.2
|-9-9-9-9--9-9-9-9---5--5h7p5-4--4---9-9-9-9--9-9-9-9------------7--7-|
|-7-7-7-7--7-7-7-7-------------------7-7-7-7--7-7-7-7-----------------|
|-0-0-0-0--0-0-0-0-------------------0-0-0-0--0-0-0-0-----------------|


1:15 - 1:32  play 2 times
|--------------------------------------------|
|--------------------------------------------|
|--------------------------------------------| gtr.1
|--------------------------------------------| gtr.2 (acoustic)
|------7p5p0-----7p5p0------5h7h8-----5h7h8--|
|--0-0-------0-0--------6-6-------6-6--------|
|                                            |
|--------------------------------------------|
|--------------------------------------------|
|--------------------------------------------| gtr.1
|------------------------------------8-------| gtr.2 (acoustic)
|------7p5p0-----7p5p0-------5---4-----------|
|--0-0-------0-0---------6-------------------|


1:34 - 1:59  play 4 times
|------------------------------------------------------------|
|------------------------------------------------------------|
|------0-----0---0------0-----0---0------0-----0---0------2--| gtr.1
|----5-----5----------5-----5----------5-----5----------2----|
|--5-----5-----5----5-----5-----5----5-----5-----5----0------|
|------------------------------------------------------------|
|                                                            |
|------------------------------------------------------------|
|------------------------------------------------------------|
|--------2-----3----0-----0-----0----------2-----3--------2--| gtr.2
|--0---------------------------------0------------------2----|
|-----------------------------------------------------0------|
|------------------------------------------------------------|


2:00 - 2:13  play 2 times  * - just first time
|-------------------------------------------------|
|-------------------------------------------------|
|--------------------------------------------*----| gtr.1
|-------------------------------------------------| gtr.2
|--8---10---8--7--5-3---5---8---7---5-5s4-4--7-7--|
|--------------------------------------------5-5--|


2:14 - 3:06  play 4 times
|----------------------------------------------------|
|----------------------------------------------------|
|------------------5---5-7-----7---------------------| gtr.1
|------5-7---5h7-7---7-------8-----8--7--5------7----|
|--5-----------------------------------------8----8--|
|----------------------------------------------------|
|                                                    |
|----------------------------------------------------|
|----------------------------------------------------|
|------------------------7------------------------5--| gtr.2
|-----------------------------------------------7----|
|--7---8-5---5h7-7h8-7h8-----8-8--7-7--5-5-----------|
|--------------------------------------------5-------|
|                                                    |
|                                                    |
|----------------------------------------------------|
|------------------------5-5-5h6p5---5h8-6p5---------|
|----------------------------------7-----------------| gtr.1
|-----5----------7-7---------------------------------|
|--8-----8-----------7-7-----------------------------|
|------------5-5-------------------------------------|
|                                                    |
|----------------------------------------------------|
|----------------------------------------------------|
|----------------------------------------------------| gtr.2
|-----5----------------------------------------------|
|--8-----8---7-7-7-7-7-7-7-7-7-7-7-7-7-7-7-7---------|
|------------5-5-5-5-5-5-5-5-5-5-5-5-5-5-5-5---------|


3:07 - 3:13  play 1 time
|---------------------------------------------------|
|---------------------------------------------------|
|---------------------------------------------------| gtr.1
|------------------------------------------------7--| gtr.2
|--8---10---8--7--5-3---5---8---7---5-5s4-4--7-7-5--|
|--------------------------------------------5-5----|


3:20 - 3:58  play 3 times
|---------------------------------------------------------------------|
|---------------------------------------------------------------------|
|-----------------------------------------------------7-7-------------| gtr.1
|-7-777-7--7-7--7-777-7--7-7h9--10-101010-10--10-10--------10-10--9-9-|
|---------------------------------------------------------------------|
|---------------------------------------------------------------------|
|                                                                     |
|---------------------------------------------------------------------|
|---------------------------------------------------------------------|
|---------------------------------------------------------------------| gtr.2
|-7-777-7--7-7--7-777-7--7-7s9--10-101010-10--10-10--12-12-10-10--9-9-|
|-5-555-5--5-5--5-555-5--5-5s7---8--8-8-8--8---8--8--10-10--8--8--7-7-|
|---------------------------------------------------------------------|
|                                                                     |
|                                                                     |
|---------------------------------------------------------------------|
|---------------------------------------------------------------------|
|---------------------------------------------------------------------| gtr.1
|---------------------------------------------------------------------|
|-8-888-8--8-8--7-777-7--7-7------------------------------------------|
|-----------------------------8-888-8--8-8--10-10-8-8--7-7------------|
|                                                                     |
|---------------------------------------------------------------------|
|---------------------------------------------------------------------|
|---------------------------------------------------------------------| gtr.2
|-7-777-7--7-7--7-777-7--7-7--5-555-5--5-5---7-7--5-5--5-5------------|
|-5-555-5--5-5--5-555-5--5-5--3-333-3--3-3---5-5--3-3--3-3------------|
|---------------------------------------------------------------------|


3:59 - 4:24  play 2 times as accompany for gtr.1 solo (not tabbed yet)
|---------------------------------------------------------------------|
|---------------------------------------------------------------------|
|---------------------------------------------------------------------| gtr.2
|-7-777-7--7-7--7-777-7--7-7s9--10-101010-10--10-10--12-12-10-10--9-9-|
|-5-555-5--5-5--5-555-5--5-5s7---8--8-8-8--8---8--8--10-10--8--8--7-7-|
|---------------------------------------------------------------------|
|                                                                     |
|---------------------------------------------------------------------|
|---------------------------------------------------------------------|
|---------------------------------------------------------------------| gtr.2
|-7-777-7--7-7--7-777-7--7-7--5-555-5--5-5---7-7--5-5--5-5------------|
|-5-555-5--5-5--5-555-5--5-5--3-333-3--3-3---5-5--3-3--3-3------------|
|---------------------------------------------------------------------|


4:25 - 4:45  play 1,5 times  * - last ending
|---------------------------------------------------------------------|
|---------------------------------------------------------------------|
|-----------------------------------------------------7-7-------------| gtr.1
|-7-777-7--7-7--7-777-7--7-7h9--10-101010-10--10-10--------10-10--9-9-|
|---------------------------------------------------------------------|
|---------------------------------------------------------------------|
|                                                                     |
|---------------------------------------------------------------------|
|---------------------------------------------------------------------|
|---------------------------------------------------------------------| gtr.2
|-7-777-7--7-7--7-777-7--7-7s9--10-101010-10--10-10--12-12-10-10--9-9-|
|-5-555-5--5-5--5-555-5--5-5s7---8--8-8-8--8---8--8--10-10--8--8--7-7-|
|---------------------------------------------------------------------|
|                                                                     |
|              *                                                      |
|--------------|------------------------------------------------------|
|--------------|------------------------------------------------------|
|--------------|------------------------------------------------------| gtr.1
|--------------|------------------------------------------------------|
|-8-888-8--8-8-|-7-777-7--7-7-----------------------------------------|
|--------------|---------------8-888-8--8-8--10-10-8-8--7-7-----------|
|              |                                                      |
|--------------|------------------------------------------------------|
|--------------|------------------------------------------------------|
|--------------|------------------------------------------------------| gtr.2
|-7-777-7--7-7-|-7-777-7--7-7--5-555-5--5-5---7-7--5-5--5-5-----------|
|-5-555-5--5-5-|-5-555-5--5-5--3-333-3--3-3---5-5--3-3--3-3-----------|
|--------------|------------------------------------------------------|


4:47 - 5:00  play 1 time  * - listen for rythm and step-in
|-----------------------------------------------------|
|-----------------------------------------------------|
|--------5--4--------------------------------------*--| gtr.1
|---------------------------10---9---7-------------7--|
|-----77--------5---7---8----------------7---------7--|
|--55------------------------------------5---------5--|
|                                                     |
|-----------------------------------------------------|
|-----------------------------------------------------|
|--------5--4----------------------------*------------| gtr.2
|---------------------------10---9---7---7------------|
|-----77--------5---7---8----------------7------------|
|--55------------------------------------5------------|


5:01 - 5:40  play 8 times
                +----------------- +------------------
                |               1. |                2.
|---------------|------------------|------------------|
|---------------|------------------|------------------|
|---------------|------------------|--7-7--7--7-7--7--| gtr.1
|---------------|-------------5----|--7-7--7--7-7--7--|
|------7p5p0----|--7-------5----6--|--5-5--5--5-5--5--|
|--5---------8--|-(5)--5-----------|------------------|
|               |                  |                  |
|---------------|------------------|------------------|
|---------------|----------5--4----|------------------|
|---------------|------5h7---------|--7-7--7--7-7--7--| gtr.2
|----------5----|--5h7----------4--|--7-7--7--7-7--7--|
|-----5h7----6--|------------------|--5-5--5--5-5--5--|
|--5------------|------------------|------------------|


5:41 - 6:18  play 8 times  (maybe the same...)
                                 +----------- +-----
                                 |         1. |   2.
|--------------------------------|------------|-----|
|--------------------------------|------------|-----|
|--9-----------------------------|------------|-----| gtr.1
|--9---9---7--7-7---s7---7-5h7p5-|-5----------|-----|
|--7---9---7--7-7----------------|---6-6-6--6-|--7--|
|------7---5--5-5----------------|------------|-----|
|                                |            |     |
|--------------------------------|------------|-----|
|--------------------------------|------------|-----|
|--9-9---------------------------|------------|-----| gtr.2
|--9-9-9-9-7--7-7----7-7-7-5h7p5-|-5----------|-----|
|--7-7-9-9-7--7-7----------------|---6-6-6--6-|--7--|
|------7-7-5--5-5----------------|------------|-----|


6:19 - 6:51  play 1 time
|-------------------------------------------------------------------|
|----------------------------1---0h1p0------------------------------|
|--------------------------------------2s4--------------------------| gtr.1
|--5-4h5-5-------------5-4h5-----------------5-4h5-------0h2--------|
|--------------------------------------------------3---3-----2------|
|-------------------------------------------------------------------|
|                                                                   |
|-------------------------------------------------------------------|
|-------------------------------------------------------------------|
|--------4---2---------------5---4s5s4-2h4---------------2h4--------| gtr.2
|--5-4h5-2-------4-2---5-4h5-3---------------5-4h5-5---5-----4------|
|--------------------------------------------------3----------------|
|-------------------------------------------------------------------|

|-------------------------------------------------------------------|
|-------------------------------------------------------------------|
|------------------------------------------------------------0h2-0--| gtr.1
|----0-2---------------5-4h5-5-------------5-4h5-0------------------|
|--2----------------------------------------------------------------|
|-------------------------------------------------------------------|
|                                                                   |
|-------------------------------------------------------------------|
|-------------------------------------------------------------------|
|------4---5-4p2h4---------------2-----------------------------2-0--| gtr.2
|--4h5-2---------------5-4h5-5-------4-2---5-4h5-0---2---4-0h4------|
|-------------------------------------------------------------------|
|-------------------------------------------------------------------|

|-------------------------------------------------------------------|
|-------------------------------------------------------------------|
|-------------------------------------------------------------------| gtr.1
|---2-2-------------4---5-1---------1h4-----5-4h5-5-----------------|
|-------------------------------------------------------------------|
|-------------------------------------------------------------------|
|                                                                   |
|-------------------------------------------------------------------|
|-------------------------------------------------------------------|
|--s4-4-------4-4---------------------------------4---2-------------| gtr.2
|---0-2---4---------4---5-1-----1h2h4-4-----5-4h5-2-------4-2-------|
|-----------------------------2-------------------------------------|
|-------------------------------------------------------------------|

|-------------------------------------------------------------------|
|--------1---0h1p0-------------------------------(0)-(2)------------|
|------------------2s4-----------------------(2)--------------------| gtr.1
|--5-4h5-----------------5-4h5-2-----0-----2------------------------|
|-------------------------------------------------------------------|
|-------------------------------------------------------------------|
|                                                                   |
|-------------------------------------------------------------------|
|-------------------------------------------------------------------|
|--------5---4s5s4-2h4---------------2------------------------------| gtr.2
|--5-4h5-3---------------5-4h5-5-----------2------------------------|
|------------------------------3------------------------------------|
|-------------------------------------------------------------------|


6:52 - 7:20  play 6 times
|--------0-----------0------------------------------|
|------4---4-------4---4---------4-5p4--------------|
|------------------------------6--------------------| gtr.1
|----6-------6---6-------6---6----------------------|
|--4-----------6-----------0-----------7s6-3---3h4--|
|---------------------------------------------------|
|                                                   |
|--------0-----------0-----------0-----------0------|
|------4---4-------4---4-------4---4-------4---4----|
|----1-------1---1-------1---1-------1---1-------1--| gtr.2
|---------------------------------------------------|
|--4-----------2-----------0------------------------|
|--------------------------------------4------------|


7:21 - 8:00  play 8 times
|-----------------------------------------|
|------------0----------------------------|
|------0---0---0--------------------------| gtr.1
|--2-------------2-----2p0-0---0---2p0h2--| gtr.2
|------------------3----------------------|
|-----------------------------------------|


8:00 - 8:07  play 1 time
|-------------------------------------------------------------------|
|------------------5------------------------------------------------|
|--------------------5s4----------------------------------------(4)-| gtr.1
|------------------------7-------------------------------------2-1--|
|--7-------------------------7---7---5s3-3---3s2-2---2-----2h3---2--|
|------8---7p5h7---------------------------------------3-2----------|
|                                                                   |
|-------------------------------------------------------------------|
|-------------------------------------------------------------------|
|--------------------------------------------5---5h7-7p5------------| gtr.2
|--2-----------------------------------5h7--------------------------|
|------3---2---------0h2h3-----------7-------------------9---9-7h9--|
|------------2h3---3---------8---8----------------------------------|


8:08 - 8:36  play 3 times
|---------------------------------------------------|
|---------------------------------------------------|
|------------------5-4h5p4-------------------5s4-4--| gtr.1
|--5-----------7-------------5-----------7----------|
|--------7-------------------------7----------------|
|---------------------------------------------------|
|                                                   |
|---------------------------------------------------|
|------------------1-0h1p0--------------------------|
|------0-----0-------------------0-----0-----2---0--| gtr.2 (acoustic)
|----2-----2-------------------2-----2---------2----|
|--2-----3-----0-------------2-----3----------------|
|----------------------------------------0----------|

|---------------------------------------------------|
|---------------------------------------------------|
|-------------------------------------(4)-----------| gtr.1
|------------------------------------2-1------------|
|--7---7---5s3-3---3s2-2---2-----2h3---2------------|
|----------------------------3-2--------------------|
|                                                   |
|---------------------------------------------------|
|---------------------------------------------------|
|------------------5---5h7-7p5----------------------| gtr.2 (electric)
|------------5h7------------------------------------|
|----------7-------------------9---9-7h9------------|
|--8---8--------------------------------------------|


8:37 - 8:50  play 1 time
|---------------------------------------------------|
|------------------1-0h1p0--------------------------|
|------0-----0-------------------0-----0-----2---0--| gtr.1
|----2-----2-------------------2-----2---------2----| gtr.2
|--2-----3-----0-------------2-----3----------------|
|----------------------------------------0----------|

|---------------------------------------------------|
|-----------------1---1h3-3p1-----------------------|
|------------0-2------------------------------------| gtr.1
|----------2------------------4---4-2h4-------------| gtr.2
|--3---3--------------------------------------------|
|---------------------------------------------------|

|---------------------------------------------------|
|------------------1-0h1p0--------------------------|
|------0-----0-----------------0-----0--------------| gtr.1
|----2-----2-----------------2-----2----------------| gtr.2
|--2-----3-----0-----------2-----3------------------|
|---------------------------------------------------|


8:51 - 9:05  play 2 times  * - follow the first chord's rythm
                                               +----- +-----------
                                               |   1. |         2.
|-------------------------------------*-----*--|---*--|-----------|
|--10--10-10--10--10--10-10-10-10-----9-----6--|--10--|-----------|
|---7---7--7---7---7---7--7--7--7-----6-----3--|---7--|-----------| gtr.2
|---7---7--7---7---7---7--7--7--7-----6-----3--|---7--|--7--7--7--|
|---0---0--0---0---0---0--0--0--0-----0-----0--|---0--|--7--7--7--|
|----------------------------------------------|------|--5--5--5--|


9:06 - 10:06  play 8 times                             last ending
|--------------------------------|---------------------|-------------|
|--------------------------------|---------------------|-------------|
|--------------------------------|---------------------|--10--10-10--| gtr.1
|--7h8p7---7h8p7--7h8s6---6h7p6--|--6h8----------------|--10--10-10--|
|--------------------------------|------8---7-------5--|---8---8--8--|
|--------------------------------|--------------8------|-------------|
|                                                      |             |
|-------------------------------------*-----*---|---*--|-------------|
|--10--10-10--10--10--10-10-10-10-----9-----6---|--10--|-------------|
|---7---7--7---7---7---7--7--7--7-----6-----3---|---7--|--10--10-10--| gtr.2
|---7---7--7---7---7---7--7--7--7-----6-----3---|---7--|--10--10-10--|
|---0---0--0---0---0---0--0--0--0-----0-----0---|---0--|---8---8--8--|
|-----------------------------------------------|------|-------------|


Check out Opeth's Domain, with more transcriptions on it :

Check Out DEATH WARP, With More Transcriptions On It:





Comments


Popular Opeth tabs & chords
Hours Of Wealth Bass Tabs
Windowpane Drum Tabs
Benighted Tabs
Credence 1 Tabs
Ending Credits 1 Tabs
Famine Tabs
Harvest Tabs
Leper Affinity Tabs
Porcelain Heart Intro Tabs
The Lotus Eater Tabs


Song lyrics



↑ Back to top | Tablatures and chords are parodies/interpretations of the original songs. You may use it for private study, scholarship, research or language learning purposes only
© 2014 AZChords.com Contact us | Privacy policy | DMCA | Add/correct tabs | Request tabs | Top 50 tabs