>
 >
In The Mist She Was Standing

In The Mist She Was Standing Guitar Tabs

Opeth - In The Mist She Was Standing chords, tabs, tablatures, lyrics

Guitar lessons | Add/correct | Request | Top 50 tabs Artists:  A B C D E F G H I J K L M N O P Q R S T U V W X Y Z 0-9

In The Mist She Was Standing Guitar Tabs – Opeth

CD, Sheet music, Poster

Do you like In The Mist She Was Standing? Share with your friends now
Tabs
"In The Mist She Was Standing"
		   from the album, "Orchid" (1994 Candlelight Records)


Tablature Legend

.  - palm mute                       /  - slide up to
 \  - slide down to                 ^ - natural harmonics
  () - ghost note                     "  - tremolo picking
     v  - vibrato                          p  - pull off
                                              h  - hammer-on


- Guitar Parts connected with two bars are parts played together.

- Otherwise, they are individual parts played in that section.

- So, please remember to look under the bar to see which guitar
part has been written out.

- Have fun, and try not to break any strings.

0:00 - 0:08

|-----------------|------------------------------------------------------------|
|-----------------|------------------------------------------------------------|
|-----------------|-0---0---0--0-/--4--4--4--4--4--2---2---2--2---4--4--4--4---|
|-----------------|------------------------------------------------------------|
|-6---3---3---3---|------------------------------------------------------------|
|-4---4---3---3---|------------------------------------------------------------|
| Guitar I                                                                     |
|													 |
|-----------------|------------------------------------------------------------|
|-----------------|------------------------------------------------------------|
|-----------------|------------------------------------------------------------|
|-----------------|-2---2--2--2--2---5--5--5--5--4---4--4--4--4--4---5--5-\-0--|
|-6---3---3---3---|------------------------------------------------------------|
|-4---4---3---3---|------------------------------------------------------------|
 Guitar II

|------------------------------------------------------------------------------|
|-----------------------------------------------------------------------------*|
|------------------------------------------------------------------------------|
|------------------------------------------------------------------------------|
|5---5--5--0--2--5---5--5-----------------------------------------------------*|
|--------------------------0-h-3-h-5---0-h-3-h-5---0--7---7--------------------|
|I                                                                        x4   |
|													 |
|------------------------------------------------------------------------------|
|-----------------------------------------------------------------------------*|
|2---2-------------------------------------------------------------------------|
|--------4--4------------------------------------------------------------------|
|-----------------------------------------------------------------------------*|
|--------------------------0-h-3-h-5---0-h-3-h-5---0--7---7--------------------|
 II                                                                       x4


0:27 - 0:57

|-----------------------------------------------------------------------------|
|-----------------------------------------------------------------------------|
|-----------------------------------------------------------------------------|
|--------------------------------5---5--5-------------------------------------|
|6---6--6--5--6--8---8--8--6--5------------8--6--8---8--8--6--5---------------|
|-----------------------------------------------------------------------------|
|I                                                                            |
|													|
|-----------------------------------------------------------------------------|
|-----------------------------------------------------------------------------|
|-----------------------------------------------------------------------------|
|-----------------------------------------------------------------------------|
|--------------------------------6---6--6--6--6-------------------------------|
|8---8--8--8--8--6---6--6--6--6------------------6---6--6--6--6---------------|
 II

|-----------------------------------------------------------------------------|
|-----------------------------------------------------------------------------|
|-----------------------------------------------------------------------------|
|--------------------------------5---5--5-------------------------------------|
|6---6--6--5--6--8---8--8--6--5------------8--6--8---8--8--6--5---------------|
|-----------------------------------------------------------------------------|
|I                                                                            |
|													|
|-----------------------------------------------------------------------------|
|-----------------------------------------------------------------------------|
|-----------------------------------------------------------------------------|
|-----------------------------------------------------------------------------|
|--------------------------------6---6--6--6--6-------------------------------|
|8---8--8--8--8--6---6--6--6--6------------------6---6--6--6--6---------------|
 II

|-----------------------------------------------------------------------------|
|-----------------------------------------------------------------------------|
|-----------------------------------------------------------------------------|
|--------------------------5--7--8---8--8--7--5-------------------------------|
|6---6--6--5--6--8---8--8------------------------8---8--8--6--5---------------|
|-----------------------------------------------------------------------------|
| I                                                                           |
|													|
|-----------------------------------------------------------------------------|
|-----------------------------------------------------------------------------|
|-----------------------------------------------------------------------------|
|-----------------------------------------------------------------------------|
|---------------------------------6---6--6--6--6------------------------------|
|-8---8--8--8--8--6---6--6--6--6------------------6---6--6--6--6--------------|
 II

|------------------------------------------------------------------------------|
|------------------------------------------------------------------------------|
|------------------------------------------------------------------------------|
|---------------------------5--7--8---8--8--7--5-------------------------------|
|-6---6--6--5--6--8---8--8------------------------8---8--8--6--5---------------|
|------------------------------------------------------------------------------|
| I                                                                            |
|													 |
|------------------------------------------------------------------------------|
|------------------------------------------------------------------------------|
|------------------------------------------------------------------------------|
|------------------------------------------------------------------------------|
|---------------------------------6---6--6--6--6-------------------------------|
|-8---8--8--8--8--6---6--6--6--6------------------6---6--6--6--6---------------|
 II

|------------------------------------------------------------------------------|
|------------------------------------------------------------------------------|
|-------------------------------5---5--5---------------------------------------|
|-6---6--6--5--6--8---8--8---5------------8--6--8---8--8--6--5-----------------|
|------------------------------------------------------------------------------|
|------------------------------------------------------------------------------|
| I                          .                                                 |
|													 |
|------------------------------------------------------------------------------|
|------------------------------------------------------------------------------|
|------------------------------------------------------------------------------|
|------------------------------------------------------------------------------|
|-8---8--8--8--8--6---6--6--6--6--8---8--8--8--8--6---6--6--6--6---------------|
|------------------------------------------------------------------------------|
 II

|------------------------------------------------------------------------------|
|------------------------------------------------------------------------------|
|-------------------------------5---5--5---------------------------------------|
|-6---6--6--5--6--8---8--8---5------------8--6--8---8--8--6--5-----------------|
|------------------------------------------------------------------------------|
|------------------------------------------------------------------------------|
| I                          .                                                 |
|													 |
|------------------------------------------------------------------------------|
|------------------------------------------------------------------------------|
|------------------------------------------------------------------------------|
|------------------------------------------------------------------------------|
|-8---8--8--8--8--6---6--6--6--6--8---8--8--8--8--6---6--6--6--6---------------|
|------------------------------------------------------------------------------|
 II

|------------------------------------------------------------------------------|
|------------------------------------------------------------------------------|
|-5---5--5------------------------5---5--5-------------------------------------|
|-----------8--6--5---5--5--5--5------------8--6--5---5--5--5--5---------------|
|------------------------------------------------------------------------------|
|------------------------------------------------------------------------------|
| I                                                                            |
|													 |
|------------------------------------------------------------------------------|
|------------------------------------------------------------------------------|
|------------------------------------------------------------------------------|
|------------------------------------------------------------------------------|
|-8---8--8--8--8-\4---4--4--4--4--8---8--8--8--8-\4---4--4--4--4---------------|
|------------------------------------------------------------------------------|
 II

|------------------------------------------------------------------------------|
|------------------------------------------------------------------------------|
|-5---5--5---------------------------------------------------------------------|
|-----------8--6--5---5--5--6--5--3---3--3--5--6--3---3--3--5--6---------------|
|------------------------------------------------------------------------------|
|------------------------------------------------------------------------------|
| I                                                                            |
|													 |
|------------------------------------------------------------------------------|
|------------------------------------------------------------------------------|
|------------------------------------------------------------------------------|
|------------------------------------------------------------------------------|
|-8---8--8--8--8--4---4--4--4--4--4---4--4--4--4-------------------------------|
|-------------------------------------------------6----------------------------|
 II


0:51 - 1:04

|------------------------------------------------------------------------------
|------------------------------------------------------------------------------
|------------------------------------------------------------------------------
|-6---6--6--5--3--6---6--6--5--3--5---5--5--3--1--5---5--5--3--1--6---6--6--5--
|------------------------------------------------------------------------------
|------------------------------------------------------------------------------
 I

-3--6---6--6--5--3--5---5--5--3--1--5---5--5--3--1----------------------------|
 I                                                                          x4

|------------------------------------------------------------------------------
|------------------------------------------------------------------------------
|------------------------------------------------------------------------------
|------------------------------------------------------------------------------
|-----------------4---4---6---6--4--3---3-------------------4---4---6---6--4---
|-1---1--1--1--1----------------------------1---1--1--1--1---------------------
 II

-3---3-----------------------------------------------------------------------*|
 II                   									   x4

repeat this entire section again from 0:27

1:40 - 1:55

|------------------------------------------------------------------------------|
|----1--1--1--1--1-------------------------------------------------------------|
|------------------------------------------------------------------------------|
|-------------------2-------------------------------------------2--------------|
|-3-----------------2-------------------------------3--3--3--3--2--------------|
|-1-----------------0-------------------------------1--1--1--1--0--------------|
| I                                                 .  .  .  .                 |
|													 |
|------------------------------------------------------------------------------|
|------------------------------------------------------------------------------|
|------------------------------------------------------------------------------|
|----3--3--3--3--3--2-------------------------------------------2--------------|
|-------------------2-------------------------------------------2--------------|
|-1-----------------0-------------------------------------------0--------------|
 II

|------------------------------------------------------------------------------|
|------------------------------------------------------------------------------|
|---x---/----------------------------------------------------------------------|
|---x--/---------------------2---------3----------------2---------3------------|
|---x-/-------------------------1--2------------------------1--2---------------|
|---------------------0---0---------------------0------------------------------|
| I                                                                            |
|													 |
|------------------------------------------------------------------------------|
|------------------------------------------------------------------------------|
|-----------------------------------------------x\-----------------------------|
|---------------------2-------------------------x-\----------------------------|
|---------------------2-------------------------x--\---------------------------|
|---------------------0-------------------------x---\--------------------------|
 II

|------------------------------------------------------------------------------|
|------------------------------------------------------------------------------|
|------------------------------------------------------------------------------|
|--------2----------3---------------2----------3-------------------------------|
|------------1--2-----------------------1--2-----------------------------------|
|-0---0----------------------0---0---------------------------------------------|
| I                                                                            |
|													 |
|------------------------------------------------------------------------------|
|------------------------------------------------------------------------------|
|------------------------------------------------------------------------------|
|--------2----------3---------------2----------3-------------------------------|
|------------1--2-----------------------1--2-----------------------------------|
|-0---0----------------------0---0---------------------------------------------|
 II

1:54 - 2:06
|------------------------------------------------------------------------------
|------------------------------------------------------------------------------
|------------------------------------------------------------------------------
|-------------2----------3-------------------2----------3----------------------
|---------------0-1--2-------------------------0-1--2--------------------------
|-0--0--0--0---------------------0--0--0--0------------------------------------
 BOTH GUITARS

------------2-----------3-------------------2----------3---------------------|
---------------0--1--2------------------------0-1--2-----------------------*-|
-0--0--0--0---------------------0--0--0--0-----------------------------------|
 B.G.                                                                      x2

2:07- 2:09
-5-------4--------------------------------------------------------------------
-3-------2-------4-------3----------------------------------------------------
-----------------2-------1----------------------------------------------------
 B.G.                     seven milestones . . .

2:09 - 2:15

|------------------------------------------------------------------------------
|------------------------------------------------------------------------------
|------------------------------------------------------------------------------
|-5---5--5--5--5--5---5--5--5--5--4---4--4--4--4--4---4--4--4--4--2--4---4--4--
|------------------------------------------------------------------------------
|------------------------------------------------------------------------------
| I

-4--4--4---4--4--5--4--2---2--2--2--2--1---1--1--1--1-------------------------|
 I                                                                       x4

|------------------------------------------------------------------------------
|------------------------------------------------------------------------------
|------------------------------------------------------------------------------
|-----------------------------------------------------------------7---7--7--7--
|---------------------------------5---5--5--5--5-------------------------------
|-0---0--0--0--0--7---7--7--7--7------------------7---7--7--7--7---------------
 II

-7--7---7--7--7--7------------------------------------------------------------|
--------------------5---5--5--5--5--7---7--7--7--7----------------------------|
II                                                                         x4

2:43 - 2:54

|------------------------------------------------------------------------------
|---------------------------------------10--12---------------------------------
|-/-12-12-12-12-12-12-12-12-12-12-12-12--------11-11-11-11-11-11-11-11-11-11---
|------------------------------------------------------------------------------
|------------------------------------------------------------------------------
|------------------------------------------------------------------------------
 Guitar Solo #1

------------9--12-p-9------9--------------------------------------------------
--------10-------------10-----10-----10---------------------------------------
-11-11----------------------------9------9------------------------------------
--------------------------------------------11----------------------11--------
------------------------------------------------13\-12/-13--14--13------12----


--------------------------12----------7--------------10-----------------------
-----------------------12-----------7-------------10--------------------------
-11-----------------12------------7------------10-------------------11--------
-----14--13------14-------------9-----------12-------------------11-----------
--------------------------------------------------------------12--------------
------------------------------------------------------------14----------------


----------------------------17--20--17------17--------------------------------|
-15-b-17--15-b-17-v---------------------20------20--17--20--17----------------|

2:54 - 2:57

|------------------------------------------------------------------------------|
|------------------------------------------------------------------------------|
|------------------------------------------------------------------------------|
|-2--2--2--2--2--2-------------------------------------------------------------|
|-------------------2--2--2--2--2--2--1--1--1--1--1--1--1--1--1---3-----2------|
|-----------------------------------------------------------------1-----0------|
|  I                                                                           |
|													 |
|------------------------------------------------------------------------------|
|------------------------------------------------------------------------------|
|-9--9--9--9--9--9-------------------------------------------------------------|
|-------------------------------------7--7--7--7--7--7-------------------------|
|-7--7--7--7--7--7--------------------------------------7-\-------3-----2------|
|-------------------6--6--6--6--6--6------------------------------1-----0------|
 II

2:59 - 3:10

------------|-----------------------------------------------------------------
------------|-----------------------------------------------------------------
-7--7--7--7-|-9--9--9--9--9--9--10--9--9--9--9--9--10--9--9--9--9--9--7---7---
------------|-----------------------------------------------------------------
-5--5--5--5-|-7--7--7--7--7--7--8---7--7--7--7--7--8---7--7--7--7--7--5---5---
------------|-----------------------------------------------------------------
 I

-9--9--9--9--9--9--10--9--9--9--9--9--10--9--9--9--9--9--7---7-----------------|
-7--7--7--7--7--7--8---7--7--7--7--7--8---7--7--7--7--7--5---5----------------*|
 I                                                                       x2

------------|-----------------------------------------------------------------
------------|-----------------------------------------------------------------
-2--2--2--2-|-----------------------------------------------------------------
------------|-2--2--2--2--2--2--3--2--2--2--2--2--2--3--2--2--2--2--2---------
------------|----------------------------------------------------------1------
------------|-----------------------------------------------------------------
II

-2--2--2--2--------------------------------------------------------------2--2--2--2---|
-------------2--2--2--2--2--2--3--2--2--2--2--2--2--3--2--2--2--2--2------------------|
II                                                                               x2

3:10 - 3:40

|----------------------------------------------------------------------------|
|---------------------------------------------------------------------------*|
|-9--9--9--9--9--10--9--9--9--9--9--10--9--9--9--9--9--9--7--7--7--7--7--7---|
|----------------------------------------------------------------------------|
|-7--7--7--7--7--8---7--7--7--7--7--8---7--7--7--7--7--7--5--5--5--5--5--5--*|
|----------------------------------------------------------------------------|
| I                                                                       x12
|
|----------------------------------------------------------------------------|
|---------------------------------------------------------------------------*|
|-4--4--4--4--4--4--5--4--4--4--4--4-----4--4--4--4--4-----4--4--4--4--4-----|
|-------------------------------------5-----------------4--------------------|
|---------------------------------------------------------------------------*|
|----------------------------------------------------------------------------|
 II                                                                       x12

3:40 - 3:43

|------------------------------------------------------------------------------|
|------------------------------------------------------------------------------|
|-9--9--9--9--9--10--9--9--9--9--9--9------------------------------------------|
|------------------------------------------------------------------------------|
|-7--7--7--7--7--8---7--7--7--7--7--7------------------------------------------|
|-----------------------------------------6----5-------------------------------|
| I Blazing                        the  white light                            |
|													 |
|------------------------------------------------------------------------------|
|------------------------------------------------------------------------------|
|-4--4--4--4--4--4--5--4--4--4--4--4-------------------------------------------|
|-------------------------------------2-----1----0-----------------------------|
|------------------------------------------------------------------------------|
|------------------------------------------------------------------------------|
 II

						3:47 -

|-12-------------------------------|-------0--------0-----0--------0--------0--
|-12-------------------------------|-------------------------------------------
|-12-------------------------------|----2--------2--------------2--------2-----
|-14-------------------------------|-2--------2--------2-----0--------0--------
|----------------------------------|-------------------------------------------
|----------------------------------|-------------------------------------------
 I

----0--------0--------0-----0--------0--------0-----0-----------------------|-
----------2--------2--------------2--------2--------------------------------|-
-1-----0--------0--------1-----0--------0--------0-------------------------*|-
 I                                                                       x2

----4-------------------------------------------------------------------------
--------------------------5---------------------------------------------------
----------------------------------------------6-------5-----------------------
II - Volume swells played during clean arpeggio (at 3:55)

---8-----7--------------------------------------------------------------------
---6-----5--------------------------------------------------------------------
 II                   I - continue to play clean arpeggio through next part

4:01 - 4:14

|------------------------------------------------------------------------------
|------------------------------------------------------------------------------
|-9---9--9--9--9--9---9--9--9--9--9---7---7--7--7--7--7---7--7--7--7-----------
|---------------------------------------------------------------------8---7----
|-7---7--7--7--7--7---7--7--7--7--7---5---5--5--5--5--5---5--5--5--5-----------
|---------------------------------------------------------------------6---5----
 II  .  .  .  .      .  .  .  .          .  .  .  .      .  .  .  .

-7--7--7--7--7---7--7--7--7--8---7---7--7--7--7--7---7--7--7--7---7-----------|
-5--5--5--5--5---5--5--5--5--6---5---5--5--5--5--5---5--5--5--5---5-----------|
 .  .  .  .      .  .  .  .          .  .  .  .      .  .  .  .           x2

4:14 - 4:41

-4--4--4--4--4--4--4--4--4--4--4--4--4---5---4--4--4--4--4--4--4--4--4--4--4--
 I
 --> II plays previous 4:01 pattern

------------5---------------5---------------5---3---5---------------5---------
-4--4---5---5---------------5-----------------------5---------------5---------
------------5---5--5--5--5--5---5--5--5--5----------5---5--5--5--5--5---5--5--
I

---------------|--------------------------------------------------------------
-------5\--3--*|--------------------------------------------------------------
---------------|--------------------------------------------------------------
-5--5----------|--------------------------------------------------------------
--------------*|--------------------------------------------------------------
---------------|--------------------------------------------------------------
I            x4   II continues 4:01 pattern during solo - solo played by I

4:41 - 5:15

---------4---4--4--4--4--4---4--4--4--4--4---5---7---7--7--7--7--7---7--7--7--
---------2---2--2--2--2--2---2--2--2--2--2---3---5---5--5--5--5--5---5--5--5--
 Solo #2     .  .  .  .      .  .  .  .              .  .  .  .      .  .  .

-7--7/-10---9---9--9--9--9--9---9--9--9--9--9---13---14---14--14--14--14--14--
-----/------------------------------------------------------------------------
-5--5/-8----7---7--7--7--7--7---7--7--7--7--7---11---12---12--12--12--12--12--
 .              .  .  .  .      .  .  .  .                 .   .   .   .

---------------------------------17-------------------------------------------
-14--14--14--14--14----------16----------13--16------16--19--17--16-----------
-------------------------14----------14----------14------------------19-------
-12--12--12--12--12-----------------------------------------------------------
  .   .   .   .

-------------17-----17-----17--------------17--18---/22---17-v-------------\--
-----17--19--19b21--19b21--19b21-v--------------------------------------------
-15---------------------------------------------------------------------------


-10-----10--------------------------------------------------------------------
-12b14--12b14--12b14-------12---10---9----10--------------------------12------
-----------------------------------------------12----------------12-----------
------------------------------------------------------------12----------------
                                                             .    .

----------------------------------11---10-------------------------------------
-10---------------------------9-------------10--p--9------------------12------
--------12---------------11---------------------------------------9-----------
---------------13---12---------------------------------------10---------------
--------------------------------------------------------12--------------------


-----------------------------------------------------17---15----\--12---------
-9------------------11------------/-14---16--17--17---------------------------
-------9---8---12-------------------------------------------------------------


-----------11--------10--------13---10--/--12v--------------------------------
-13---13--------12--------11--------------------------------------------------
                                               feedback

-13----------------12---------------------------------------------------------
------------------------------------------12-------------14-------------------
 I plays these volume swells while II plays 3:47 clean riff- x3..then retard

5:33 - 6:32

I - improvised volume swells throughout

5:33
-7--------------------------------------------------------7-------------------
-7--------7-----------7-----------7-----------8-----------------------7-------
-9------------9-----------9-----------9-----------9-----------9-----------9---
-9----9-----------9-----------9-----------9-----------9-----------9-----------
 II - let ring throughout

			    5:57
-----------------|-5----------------------------------------------------------
-----8----------*|-5--------5-----------5-----------5-----------6-------------
---------9-------|-7------------7-----------7-----------7-----------7---------
-9-----------9---|-7----7-----------7-----------7-----------7-----------7-----
----------------*|------------------------------------------------------------
-----------------|------------------------------------------------------------
 II           x4

-5----------------------------------|-----------------------------------------
-------------5-----------6---------*|-----------------------------------------
-----7-----------7-----------7------|-----------------------------------------
---------7-----------7-----------7--|-----------------------------------------
-----------------------------------*|-----------------------------------------
------------------------------------|-----------------------------------------
 II                                  5:33 x2, 5:57 x1, then

-2--------------------------------------------------------2-------------------
-2--------2-----------2-----------2-----------3-----------------------2-------
-4------------4-----------4-----------4-----------4-----------4-----------4---
-4----4-----------4-----------4-----------4-----------4-----------4-----------
 II

----------------|-7--------------------------------------------------------7--
-----3----------|-7--------7-----------7-----------7--------------------------
---------4------|-9------------9-----------9-----------9---------------9------
-4-----------4--|-9----9-----------9-----------9-----------9-------9----------
----------------|-------------------------------------------------------------
----------------|----------------------------------------------0--------------
 II              Final Variation                                retard

-------------7--|-------------------------------------------------------------
-8-----------7--|-------------------------------------------------------------
-----9-------9--|-------------------------------------------------------------
---------9---9--|-------------------------------------------------------------
----------------|-------------------------------------------------------------
----------------|-------------------------------------------------------------
 II

6:34 - 7:14

|------------------------------------------------------------------------------|
|------------------------------------------------------------------------------|
|------------------------------------------------------------------------------|
|---------------------------------------------------------7---8---8------------|
|---------------------------------------------------------------------7-----6--|
|------------------------------------------------------------------------------|
| I                                                                            |
|													 |
|------------------------------------------------------------------------------|
|------------------------------------------------------------------------------|
|------------------------------------------------------------------------------|
|-7---8---8--------------------------------------------------------------------|
|-------------7-------6---6---7---7--------------------------------------------|
|-------------------------------------6---0------------------------------------|
 II

|------------------------------------------------------------------------------|
|------------------------------------------------------------------------------|
|------------------------------------------------------------------------------|
|------------------------------------------------------------------------------|
|--6---7---7-------------------------------------------------------------------|
|--------------6---0-----------------------------------------------------------|
| I                                                                            |
|													 |
|------------------7-----------------------------------------------------------|
|------------------8-----------------------------------------------------------|
|------------------9-----------------------------------------------------------|
|------------------9----------------7---8---8----------------------------------|
|-----------------------------------------------7-------6---6---7---7----------|
|-----------------------------------------------------------------------6---0--|
 II                            bass/drums enter

|------------------------------------------------------------------------------|
|------------------------------------------------------------------------------|
|------------------------------------------------------------------------------|
|-------------7---8---8--------------------------------------------------------|
|-------------------------7------6---6---7---7---------------------------------|
|------------------------------------------------6---0-------------------------|
| I                                                                            |
|													 |
|------------------------------------------------------------------------------|
|------------------------------------------------------------------------------|
|------------------------------------------------------------------------------|
|---------------------------------------------------------------------7---8----|
|------------------------------------------------------------------------------|
|------------------------------------------------------------------------------|
 II

|------------------------------------------------------------------------------|
|------------------------------------------------------------------------------|
|------------------------------------------------------------------------------|
|--------------------------------------------------7---8---8-------------------|
|--------------------------------------------------------------7------6---6----|
|------------------------------------------------------------------------------|
| I                                                                            |
|													 |
|------------------------------------------------------------------------------|
|------------------------------------------------------------------------------|
|------------------------------------------------------------------------------|
|-8----------------------------------------------------------------------------|
|-----7------6---6---7---7-----------------------------------------------------|
|----------------------------6---0---------------------------------------------|
 II

|------------------------------------------------------------------------------|
|------------------------------------------------------------------------------|
|------------------------------------------------------------------------------|
|------------------------------------------------------------------------------|
|-7---7------------------------------------------------------------------------|
|---------6---0----------------------------------------------------------------|
| I                                                                            |
|													 |
|-------------7----------------------------------------------------------------|
|-------------8----------------------------------------------------------------|
|-------------9----------------------------------------------------------------|
|-------------9------------------7---8---8-------------------------------------|
|--------------------------------------------7-----6---6---7---7---------------|
|------------------------------------------------------------------6---0-------|
 II

|------------------------------------------------------------------------------|
|------------------------------------------------------------------------------|
|------------------------------------------------------------------------------|
|-------------7---8---8--------------------------------------------------------|
|-------------------------7------6---6---7---7---------------------------------|
|------------------------------------------------6---0-------------------------|
| I                                                                            |
|													 |
|------------------------------------------------------------------------------|
|------------------------------------------------------------------------------|
|------------------------------------------------------------------------------|
|------------------------------------------------------------------------------|
|------------------------------------------------------------------------------|
|------------------------------------------------------------------------------|
 II

|------------------------------------------------------------------------------|
|------------------------------------------------------------------------------|
|------------------------------------------------------------------------------|
|--------------------------------------------------------7---8---8-------------|
|--------------------------------------------------------------------7-----6---|
|------------------------------------------------------------------------------|
| I                                                                            |
|													 |
|------------------------------------------------------------------------------|
|------------------------------------------------------------------------------|
|------------------------------------------------------------------------------|
|-7---8---8--------------------------------------------------------------------|
|-------------7-----6---6---7---7----------------------------------------------|
|-----------------------------------6---0--------------------------------------|
 II

|------------------------------------------------------------------------------|
|------------------------------------------------------------------------------|
|------------------------------------------------------------------------------|
|--6---7---7-------------------------------------------------------------------|
|--------------6---0-----------------------------------------------------------|
|------------------------------------------------------------------------------|
| I                                                                            |
|													 |
|------------------7-----------------------------------------------------------|
|------------------8-----------------------------------------------------------|
|------------------9-----------------------------------------------------------|
|------------------9--------------------7---8---8------------------------------|
|---------------------------------------------------7------6---6---7---7-------|
|--------------------------------------------------------------------------6---|
 II

|----------------|-------------------------------------------------------------|
|----------------|-------------------------------------------------------------|
|----------------|-------------------------------------------------------------|
|----------------|---7---8---8------------------------------2------------------|
|----------------|---------------7------6---6---7---7-------2------------------|
|----------------|--------------------------------------6---0------------------|
| I                                                                            |
|													 |
|----------------|-------------------------------------------------------------|
|----------------|---5---6---6-------------------------------------------------|
|----------------|---------------4------3---3---4---4--------------------------|
|----------------|--------------------------------------1---2------------------|
|----------------|------------------------------------------2------------------|
|-0--------------|------------------------------------------0------------------|
 II

7:15 - 7:28

|----------------|-------------------------------------------------------------|
|----------------|-------------------------------------------------------------|
|----------------|-4----------4-------------4---4---2---2---2-------0---2------|
|----------------|-------------------------------------------------------------|
|----------------|-------------------------------------------------------------|
|----------------|-------------------------------------------------------------|
| I                                                                            |
|													 |
|----------------|-------------------------------------------------------------|
|----------------|-------------------------------------------------------------|
|----------------|-------------------------------------------------------------|
|----------------|-2----------2-------------2---2-/-4---4---4-------4---4------|
|----------------|-------------------------------------------------------------|
|----------------|-------------------------------------------------------------|
 II

|------------------------------------------------------------------------------|
|------------------------------------------------------------------------------|
|-4----------5------4---2---4---4---0---0-------------0---4-------4------------|
|--------2-------------------------------------4-------------------------------|
|------------------------------------------------------------------------------|
|------------------------------------------------------------------------------|
| I                                                                            |
|													 |
|------------------------------------------------------------------------------|
|------------------------------------------------------------------------------|
|-5------4-h-5-p-4--\--2---0---------------------------------------------------|
|--------------------------------------9------9---9---10---12------12----------|
|------------------------------2/------7---------------------------------------|
|------------------------------------------------------------------------------|
 II

|------------------------------------------------------------------------------|
|------------------------------------------------------------------------------|
|-4---4---2---2------2------0---2---4----------5------4---2---0----------------|
|------------------------------------------2-----------------------------------|
|-----------------------------------------------------------------1------2/--4-|
|------------------------------------------------------------------------------|
| I                                                                            |
|													 |
|------------------------------------------------------------------------------|
|------------------------------------------------------------------------------|
|------------------------------------------------------------------------------|
|-12-12--10---10-----10-----9-------9-----9---10---9---------------------------|
|-------------------------------12---------------------12----------------------|
|-----------------------------------------------------------11-----------\-----|
 II

7:28 - 8:34

-11-----------11----------5-----------9---11--11--11-11--12--11--9--8-------*|
----------------\------------------------------------------------------------|
-9------------9-----------3---------/-7---9---9---9--9---10--9---7--6--------|
 I                 play through whole section including singing         x10

----------------------------------------|-------------------------------------
----------------------------------------|-------------------------------------
-4------4-----4-/-5----4-----4---2---2--|-5----------------------4------------
-4------4--------------2-----2----------|-5------4---5---4-------4------------
-2------2--------------0-----0----------|-3------2---3---2---0---2------------
-2--------------------------------------|-------------------------------------
 II                                       ending #1

----------------------------------------|-------------------------------------
----------------------------------------|-------------------------------------
-5-----4---5---4-------4----------------|--4------4----4---5---2------2----2--
----------------------------------------|--4------4----4---5---2------2----2--
-3-----2---3---2---0---2----------------|--2------2----2---3---0------0----0--
----------------------------------------|-------------------------------------
 II - end #2                               II - riff  during singing (7:41)

----------------------------------------|-------------------------------------
---------------------------------------*|-------------------------------------
-2---5------4---5---4---2---4-----------|-------------------------------------
-2---5------4---5---4---2---4-----------|-------------------------------------
-0---3------2---3---2---0---2----------*|-------------------------------------
----------------------------------------|-------------------------------------
I                                    x8

|------------------------------------------------------------------------------
|------------------------------------------------------------------------------
|-/11--11--11--11/--12---10----9-----------------------------------------------
|-/--------------/---------\---------------------------------------------------
|-/9---9---9---9-/--10---9-----7-----------------------------------------------
|------------------------------------------------------------------------------
|  I  - section end
|
|------------------------------------------------------------------------------
|------------------------------------------------------------------------------
|------------------------------------------------------------------------------
|------------------------------2-----------------------------------------------
|--3----------2---3---5--------------------------------------------------------
|------------------------------------------------------------------------------
 II - section end

8:35 - 9:20

|------------------------------------------------------------------------------|
|------------------------------------------------------------------------------|
|------------------------0------0---0-h-1--------------------------------------|
|--------------------0----------------------0------------------0---1-----------|
|----------------1------------------------------3------3---3-------------------|
|-3------3---3---------------------------------------------------------4-------|
| I                                         .                                  |
|													 |
|------------------------------------------------------------------------------|
|------------------------------------------------------------------------------|
|------------------------------------------------------------------------------|
|------------------------------------------------------------------------------|
|------------------------------------------------------------------------------|
|------------------------------------------------------------------------------|
| II

|------------------------------------------------------------------------------|
|------------------------------------------------------------------------------|
|----------------------------------------0------0---0-h-1----------------------|
|------------------------------------0---------------------0-------------------|
|---------1---1------------------1-----------------------------3------3---3----|
|-4---4-----------3------3---3-------------------------------------------------|
| I                                                        .                   |
|												       |
|------------------------------------------------------------------------------|
|--------------------------------------------------------------4---------------|
|--------------------------------------------------------------3---------------|
|--------------------------------------------------------------1---------------|
|----------------------------5----------------------5--------------------------|
|----------------------------3----------------------3--------------------------|
 II

|--------------------------------|---------------------------------------------|
|--------------------------------|---------------------------------------------|
|--------------------------------|------------------------0------0---0---------|
|-0---1--------------------------|--------------------0------------------1---0-|
|-------------------------1---1--|----------------1----------------------------|
|---------4-------4---4----------|-3------3---3--------------------------------|
| I                                                                            |
|													 |
|--------------------------------|---------------------------------------------|
|--------------------------------|------------------------3------3---3---1---1-|
|--------------------------------|----------------0---2------------------------|
|---------3----------------------|-0------0---0--------------------------------|
|---------1----------------------|---------------------------------------------|
|---------1----------------------|---------------------------------------------|
 II

|------------------------------------------------|-----------------------------|
|-----------------------------------------------*|-----------------------------|
|------------------------------------------------|-----------------------------|
|----------------0---1---------------------------|-5---------------------------|
|-3------3---3--------------------------1---1---*|-5---------------------------|
|------------------------4------4---4------------|-3---------------------------|
| I                                          x8                                |
|													 |
|------------------------------------------------|-----------------------------|
|-4--------------1---3---1----------------------*|------------------------3----|
|--------0---0------------------0---0---0---0----|----------------0---2--------|
|------------------------------------------------|-0------0---0----------------|
|-----------------------------------------------*|-----------------------------|
|------------------------------------------------|-----------------------------|
 II                                          x8    continue 8:42 riff

---3---3---1---1---4--------------1---3---1-----------------------------------
--------------------------0---0------------------0---0---0---0---0------------
 II


|------------------------------------------------------------------------------|
|------------------3------3---3---1---1---4--------------1---3---1-------------|
|----------0---2---------------------------------0---0------------------0---0--|
|--0---0-----------------------------------------------------------------------|
|------------------------------------------------------------------------------|
|------------------------------------------------------------------------------|
| II                                                                           |
|													 |
|------------------------------------------------------------------------------|
|------------------------------------------------------------------------------|
|------------------------------------------------------------------------------|
|-----------------------------------------1---1---1---1---1---1----------------|
|------5----------------------5-----------------------------------3---3---3----|
|------3----------------------3--------





Comments


Popular Opeth tabs & chords
Demon Of The Fall 2 Bass Tabs
The Night And The Silent Water Bass Tabs
Advent Tabs
Black Rose Immortal Tabs
In My Time Of Need 1 Tabs
Masters Apprentice (Intro) Tabs
Patterns In The Ivy Ii 1 Tabs
Requiem Tabs
The Night And The Silent Water Tabs
When Tabs


Song lyrics



↑ Back to top | Tablatures and chords are parodies/interpretations of the original songs. You may use it for private study, scholarship, research or language learning purposes only
© 2014 AZChords.com Contact us | Privacy policy | DMCA | Add/correct tabs | Request tabs | Top 50 tabs