>
 >
In My Time Of Need

In My Time Of Need Guitar Tabs

Opeth - In My Time Of Need chords, tabs, tablatures, lyrics

Guitar lessons | Add/correct | Request | Top 50 tabs Artists:  A B C D E F G H I J K L M N O P Q R S T U V W X Y Z 0-9

In My Time Of Need Guitar Tabs – Opeth

CD, Sheet music, Poster

Do you like In My Time Of Need? Share with your friends now
Bass TabsTabsTabs v2Tabs v3
Opeth - In My Time of Need






Key:
b = Bend
trem. = Tremolo Pick


Intro (Clean Electric Guitar)
E------2-0-2---------2-0-2----------2-0-2----------2-0-2------
B-------------------------------------------------------------
G------------0-2-----------0-2------------0-2------------0-2--
D----2-------------2--------------2--------------2------------
A---2-------------2--------------2--------------2-------------
E--0-------------0--------------0--------------0--------------

Verse (Clean Electric Guitar)
E------2-0-2---------2-0-2----------2-0-2-------------------
B--------------------------------------------------7-5-5-8--
G------------0-2-----------0-2------------0-2---------------
D----2-------------2--------------2--------------7----------
A---2-------------2--------------2--------------7-----------
E--0-------------0--------------0--------------5------------

E------2-0-2---------2-0-2----------2-0-2-------------------
B--------------------------------------------------7-5-5-8--
G------------0-2-----------0-2------------0-2---------------
D----2-------------2--------------2--------------7----------
A---2-------------2--------------2--------------7-----------
E--0-------------0--------------0--------------5------------


Pre-Chorus (Clean Electric Guitar)                  
E--4--------3--------2--------1---1---1---1---1---1---1---1-----
B---4--------3--------2--------1---1---1---1---1---1---1---1----
G----4--------3--------2--------1---1---1---1---1---1---1---1---
D--------------------------------1---1---1---1---1---1---1---1--
A---------------------------------------------------------------
E---------------------------------------------------------------

Chorus (Acoustic Guitar)
E----------------------------------------------------
B----------------------------------------------------
G--9-9-99-99-9---------------------------------------
D--9-9-99-99-9--9-9-99-99-9--7-7-77-77-7--2-2-4-4-4--
A--7-7-77-77-7--9-9-99-99-9--7-7-77-77-7--2-2-4-4-4--
E---------------7-7-77-77-7--5-5-55-55-5--0-0-2-2-2--

E----------------------------------------------------
B----------------------------------------------------
G--9-9-99-99-9---------------------------------------
D--9-9-99-99-9--9-9-99-99-9--7-7-77-77-7--2-2-4-4-4--
A--7-7-77-77-7--9-9-99-99-9--7-7-77-77-7--2-2-4-4-4--
E---------------7-7-77-77-7--5-5-55-55-5--0-0-2-2-2--

Pre-Solo (Acoustic Guitar)
E----------------------------------------------
B----------------------------------------------
G--2-2-4-4-4--2-2-4-4-4--2-2-4-4-4--5-5-7-7-7--
D--2-2-4-4-4--2-2-4-4-4--2-2-4-4-4--5-5-7-7-7--
A--0-0-2-2-2--0-0-2-2-2--0-0-2-2-2--3-3-5-5-5--
E----------------------------------------------

E----------------------------------------------
B----------------------------------------------
G--2-2-4-4-4--2-2-4-4-4--2-2-4-4-4--5-5-7-7-7--
D--2-2-4-4-4--2-2-4-4-4--2-2-4-4-4--5-5-7-7-7--
A--0-0-2-2-2--0-0-2-2-2--0-0-2-2-2--3-3-5-5-5--
E----------------------------------------------

Solo

Guitar 1 (Lead - Clean Electric Guitar)
E-------------------------------------------------------------
B-----------10b12---------14b16---------------------10-12-13--
G-------------------------------------------------------------
D-------------------------------------------------------------
A-------------------------------------------------------------
E-------------------------------------------------------------

E--------------------16b18------------------------------------
B--12-10-12---------------------------------------18b20trem.--
G-------------------------------------------------------------
D-------------------------------------------------------------
A-------------------------------------------------------------
E-------------------------------------------------------------

Guitar 2 (Rhythm - Clean Electric Guitar)
E------2-0-2---------2-0-2----------2-0-2-------------------
B--------------------------------------------------7-5-5-8--
G------------0-2-----------0-2------------0-2---------------
D----2-------------2--------------2--------------7----------
A---2-------------2--------------2--------------7-----------
E--0-------------0--------------0--------------5------------

E------2-0-2---------2-0-2----------2-0-2-------------------
B--------------------------------------------------7-5-5-8--
G------------0-2-----------0-2------------0-2---------------
D----2-------------2--------------2--------------7----------
A---2-------------2--------------2--------------7-----------
E--0-------------0--------------0--------------5------------

That's it! The order of the song is like this:

Intro
Verse
Pre-Chorus
Chorus
Verse
Pre-Chorus
Chorus
Pre-Solo
Solo
Pre-Chorus
Chorus (repeat until fade-out)





Comments


Popular Opeth tabs & chords
Burden Bass Tabs
Windowpane Drum Tabs
Bridge Of Sighs Intro Tabs
Closure Tabs
Ending Credits 1 Tabs
Ghost Of Perdition Tabs
Grand Conjuration Intro Tabs
Heir Apparent Intro Tabs
Madrigal Tabs
Porcelain Heart 2 Tabs


Song lyrics



↑ Back to top | Tablatures and chords are parodies/interpretations of the original songs. You may use it for private study, scholarship, research or language learning purposes only
© 2014 AZChords.com Contact us | Privacy policy | DMCA | Add/correct tabs | Request tabs | Top 50 tabs