» » »

Hex Omega Tabs (ver.3)

Artists:  A B C D E F G H I J K L M N O P Q R S T U V W X Y Z # 

Hex Omega Tabs (ver.3)

Opeth
Rating:
0/5 (0 votes)

Hard to play? Try these video lessons and learn fast.
                (Intro)
These are only the main parts of the song, excluding the solo endind part. Hope you enjoy... ;)
Standard

Dist.
|------------------------------------------------------|
|------------------------------------------------------|
|---9--------------------------------------------------|
|---9--------------------------------------------------|
|---7-------7---7h8p7-7----------5---5-7b8(7)~---------|
|---0---------0-------0----0-4-7---7-------------------|


Dist.
|--0-------------------------12------------------------|
|----0----------------------------12-------------------|
|------7------------------------9----9b10~-------------|
|--------6---------------------------------------------|
|-----------7--6h9p6-7-7-------------------------------|
|-----------0----------0-------------------------------|


Dist.
|------------------------------------------------------|
|------------------------------------------------------|
|---9--------------------------------------------------|
|---9--------------------------------------------------|
|---7-------7---7h8p7-7----------5---5-7b8(7)~---------|
|---0---------0-------0----0-4-7---7-------------------|


Dist.
|--0-------------------------12------------------------|
|----0----------------------------12-------------------|
|------7----9-------------------9----9b10~b9~~---------|
|--------6--9------------------------------------------|
|--------8--7--6h9p6-7-7-------------------------------|
|-----------0----------0-------------------------------|


Clean (I use the neck pickup)
|------------------------------------------------------|
|------------------------------------------------------|
|-----9--------------13-----------9--------------------|
|------------------------------------------------------|
|---7-------------11------------7----------------------|
|-0-------------0-------------0------------------------|


Clean
|---------------------------------------------------|
|---------------------------------------------------|
|------6\5--5\2-2/3---3---2-------------------------|
|---------------------------------------------------|
|---4   \3--3\------1---1---------------------------|
|-0-------------------------1-----------------------|


Dist.
 Ear the song
 to get the
 evolution
[PM<<<<<<<<<]   
|---------------------------------------------------|
|-----------------------------9b10b9----------------|
|-------9----------9-7-9-10-9--------9--------------|
|-----9-9------------------------------6b7b6---6----|
|-7-7-7-7...---------------------------------7---7-5|
|-0-0-0-0...----------------------------------------|


Dist.
|--------------------------------------------------|
|--------------------------------------------------|
|---9---10-9----9-9----7-7-------------------------|
|---9---10-9----9-9----7-7---8---------------------|
|---7---8--7----7-7----5-5---8---------------------|
|-0-0---0--0----0-0----0-0---6---------------------|


and so on...
didn't have time to tab the remaining.
(I hope I didn't mistyped any number above, beacause I didn't recheck...)
            
Hard to play? Try these video lessons and learn fast. | Correct




comments powered by Disqus
↑ Back to top | Tablatures and chords are parodies/interpretations of the original songs. You may use it for private study, scholarship, research or language learning purposes only