>
 >
Hessian Peel Partial Intro

Hessian Peel Partial Intro Guitar Tabs

Opeth - Hessian Peel Partial Intro chords, tabs, tablatures, lyrics

Guitar lessons | Add/correct | Request | Top 50 tabs Artists:  A B C D E F G H I J K L M N O P Q R S T U V W X Y Z 0-9

Hessian Peel Partial Intro Guitar Tabs – Opeth

CD, Sheet music, Poster

Do you like Hessian Peel Partial Intro? Share with your friends now
Tabs
This is an incomplete tab, I know.  However, I'm not that skilled at picking out solos 
certain background guitar tracks.  Someone else will have to fill that in at a later time.


    Q=160
   3/4
    Gtr I
||--------------|-------------|------------------12-|-10---------|
||o-------------|-------------|-----------10-/12----|------12----|
||--12---14--12-|-\9-9-9-9--9-|-12-/14-12-----------|------------|
||--------------|-------------|---------------------|------------|
||o-------------|-------------|---------------------|------------|
||--------------|-------------|---------------------|------------|


|-------------|-------------|------------------12-|-11----------||
|-------------|-------------|-----------10-/12----|------12----o||
|-12---14--12-|-\9-9-9-9--9-|-12-/14-12-----------|-------------||
|-------------|-------------|---------------------|-------------||
|-------------|-------------|---------------------|------------o||
|-------------|-------------|---------------------|-------------||

1:01  (Will the children cry...)

                                                        4x
||-----------|-------------|----------|-----------------||
||o------4---|-------4h5p4-|------4---|-------4h5p4----o||
||-----4-----|-----4-------|----4-----|-----4-----------||
||-----------|---2---------|----------|---2-------------||
||o-4--------|-0-----------|-4--------|-0--------------o||
||-----------|-------------|----------|-----------------||

Repeat part A, but hammer 12h14r12 in the first bar the second time through.  You'll 
what I mean when you hear it.

Repeat part B whilst pipes play.

1:46 - Two Slightly Sampled Electric Guitars

||-----------|-------------|----------|-----------------||
||o------4---|-------4h5p4-|------4---|-------4h5p4----o||
||-----4-----|-----4-------|----4-----|-----4-----------||
||-----------|---2---------|----------|---2-------------||
||o-4--------|-0-----------|-4--------|-0--------------o||
||-----------|-------------|----------|-----------------||


|-------------|-----------------|------------------12-|-10---------|
|-------------|-----------------|-----------10-/12----|------12----|
|-12---14--12-|-\9--9--9--9---9-|-12-/14-12-----------|------------|
|-------------|-----------------|---------------------|------------|
|-------------|-----------------|---------------------|------------|
|-------------|-----------------|---------------------|------------|
|
| Gtr II
|-------------|-----------------|------------------15-|-14---------|
|------15-----|-----------------|-----------15--17----|------15----|
|-16-------16-|-16--------------|-16-----16-----------|------------|
|-------------|----17-17-17--17-|-----17--------------|------------|
|-------------|-----------------|---------------------|------------|
|-------------|-----------------|---------------------|------------|


|-------------|-----------------|------------------12-|-11---------|
|-------------|-----------------|-----------10-/12----|------12----|
|-12---14--12-|-\9--9--9--9---9-|-12-/14-12-----------|------------|
|-------------|-----------------|---------------------|------------|
|-------------|-----------------|---------------------|------------|
|-------------|-----------------|---------------------|------------|
|
|-------------|-----------------|------------------15-|-14---------|
|------15-----|-----------------|-----------15--17----|------15----|
|-16-------16-|-16--------------|-16-----16-----------|------------|
|-------------|----17-17-17--17-|-----17--------------|------------|
|-------------|-----------------|---------------------|------------|
|-------------|-----------------|---------------------|------------|

(cannot figure out for the life of me how 2:13-4:13 is played)

4:14 - First GODHEAD METAL riff

||---------|--------|------------|-----------|
||o--------|--------|------------|-----------|
||---------|--------|------------|-----------|
||---------|--------|------------|-5----5----|
||o-2------|-4------|-5----2-4-5-|-----------|
||---------|--------|------------|-----------|

                                         (best guess, YMMV)
                                          PM----------------------||
|------------|------------|-------------|-------------------------||
|------------|------------|-------------|----------------------o--||
|------------|------------|-------------|-------------------------||
|-4-5-4----4-|-2-4-2----2-|-0-2-0-------|-------------------------||
|-------5----|-------4----|-------2--5--|-4-5-4-2-4-2-2-0------o--||
|------------|------------|-------------|-----------------3-------||


                           PM--|
||---------|--------|------------|-----------|
||o--------|--------|------------|-----------|
||---------|--------|------------|-----------|
||---------|--------|------------|-5----5----|
||o-2------|-4------|-5----2-4-5-|-----------|
||---------|--------|------------|-----------|
|
|   Gtr II
||---------|--------|------------|-----------|
||o--------|--------|------------|-----------|
||---------|--------|------------|-7----7----|
||--0------|-2------|-5----------|-----------|
||o--------|--------|------------|-----------|
||---------|--------|------------|-----------|


                                            PM---------------------||
|-------------|-------------|-------------|------------------------||
|-------------|-------------|-------------|---------------------o--||
|-------------|-------------|-------------|------------------------||
|-4-5-4----4--|-2-4-2----2--|-0-2-0-------|------------------------||
|-------5-----|-------4-----|-------2--5--|-4-5-4-2-4-2-2-0-----o--||
|-------------|-------------|-------------|-----------------3------||
|
|                                           PM---------------------||
|-------------|-------------|-------------|------------------------||
|-------------|-------------|-------------|---------------------o--||
|-6-7-6----6--|-4-6-4-2--4--|-2-4-2----2--|------------------------||
|-------7-----|-------------|-------4-----|------------------------||
|-------------|-------------|-------------|-4-5-4-2-4-2-2-0-----o--||
|-------------|-------------|-------------|-----------------3------||

The rest, netizens, I leave up to you.





Comments


Popular Opeth tabs & chords
Damnation 2 Bass Tabs
Porcelain Heart Bass Tabs
Windowpane Bass Tabs
Benighted Tabs
Blackwater Park Tabs
Ending Credits 1 Tabs
Harvest 1 Tabs
Hope Leaves 2 Tabs
Hope Leaves Live Tabs
The Amen Corner Tabs


Song lyrics



↑ Back to top | Tablatures and chords are parodies/interpretations of the original songs. You may use it for private study, scholarship, research or language learning purposes only
© 2014 AZChords.com Contact us | Privacy policy | DMCA | Add/correct tabs | Request tabs | Top 50 tabs