>
 >
Harvest 2

Harvest 2 Guitar Tabs

Opeth - Harvest 2 chords, tabs, tablatures, lyrics

Guitar lessons | Add/correct | Request | Top 50 tabs Artists:  A B C D E F G H I J K L M N O P Q R S T U V W X Y Z 0-9

Harvest 2 Guitar Tabs – Opeth

CD, Sheet music, Poster

Do you like Harvest 2? Share with your friends now
Bass TabsChordsChords v2TabsTabs v2Tabs v3Ukulele
OPETH  Harvest
(BLACKWATER PARK)
Re-formatted by Chris Wenzel
Beware: clean parts are strummed. This is how I strum it; and don't forget
to set your guitar strings to normal tuning...


I.repeat 4 times
Acoustic guitar
|--0-----0-----0-----0-----0-----0-----0-----0-------|
|--0-----0-0---0-----0-0---0-----0-0---0-----0-0-----|
|--0-----0-0-0-0-----0-0-0-0-----0-0-0-0-----0-0-0---|
|--2-------2-2-2-------2-2-5-------5-5-0-------2-2---|
|--2-----------2-----------2-----------2-------------|
|--0-----------0-----------0-----------0-------------|

II.repeat 4 times
Acoustic guitar
|--7-7-7-7-----5-5-5-5-----3---3-3-----2-2-2-2-----3-3-3-0-0-0-0-----0-
|--8-8-8-8-----5-5-5-5-----3---3-3-----3-3-3-3-----3-3-3-0-0-0-0-----0-
|--9---9-------7---7-------5-----5-----4---4-------3---3---0---0-----0-
|--9-----------7-----------5-----------4-----------5-----------2-------
|--7-----------5-----------3-----------2-----------5-----------2-------
|--------------------------------------------------3-----------0-------

----0-----0-----0-----0-------|
0---0-----0-0---0-----0-0-----|
0-0-0-----0-0-0-0-----0-0-0---|
2-2-5-------5-5-0-------2-2---|
----2-----------2-------------|
----0-----------0-------------|

Electric guitar
|--------------------------------------5-----------7-------10---------|
|--5--------------------------------------------------------*--5------|
|---------------------------------------------------------------------|
|---------------------------------------------------------------------|
|---------------------------------------------------------------------|
|---------------------------------------------------------------------|

*Play times 2 & 4
III.1st short transition
Acoustic guitar
|----------------|
|----------------|
|----------------|
|--7-----9-------|
|--7-----9-------|
|--5-----7-------|

Electric guitar
|----------------|
|--5-------------|
|----4-----------|
|--------5h7-5---|
|----------------|
|----------------|
IV.repeat 4 times
Acoustic guitar
|--0-----0-----0-----0-----0-----0-------------------|
|--0-----0-0---0-----0-0---0-----0-0-----------------|
|--0-----0-0-0-0-----0-0-0-0-----0-0-0---------------|
|--2-------0-0-2-------0-0-5-------0-0-7-----9-------|
|--2-----------2-----------2-----------7-----9-------|
|--0-----------0-----------0-----------5-----7-------|

Electric guitar
|----------------------------------------------------|
|----------------------------------------------------|
|----------------------------------------------------|
|--4---------let ring...-----------------------------|
|----------------------------------------------------|
|----------------------------------------------------|

V.starts to sing: "stay with me a while rise upon the vile be my final rest
poured into my chest"
|--3-----3-3-3-3-----3-3-3-3-----3-3---4-----4-4---3-----3-3-3-3-----3-
|--3-----3-3-3-3-----3-3-3-4-----4-4---4-----4-4---3-----3-3-3-3-----3-
|--5-------5---5-------5---5-------5---4-------4---3-------3---3-------
|--5-----------5-----------5-----------6-----------5-----------5-------
|--3-----------3-----------3-----------6-----------5-----------5-------
|--------------------------------------4-----------3-----------3-------

3-3-3-----3-3-3-3-----3-3-3---|
3-3-3-----3-3-3-3-----3-3-3---|
3---4-------4---4-------4-----|
----5-----------5-------------|
----5-----------5-------------|
----3-----------3-------------|

VI. Chorus "into the orchard I walk peering way paste the gate..." Acoustic
guitar
|--0-----0-----0-----0-----0-----0-----0-----0-----3-----3-----3-----3-
|--0-----0-0---0-----0-0---0-----0-0---0-----0-0---3-----3-3---3-----3-
|--0-----0-0-0-0-----0-0-0-0-----0-0-0-0-----0-0-0-3-----3-3-3-3-----3-
|--2-------2-2-2-------2-2-2-------2-2-2-------2-2-5-------5-5-5-------
|--2-----------2-----------2-----------2-----------5-----------5-------
|--0-----------0-----------0-----------0-----------3-----------3-------

----3-----3-----3-----3-------|
3---3-----3-3---3-----3-3-----|
3-3-3-----3-3-3-3-----3-3-3---|
5-5-5-------5-5-5-------5-5---|
----5-----------5-------------|
----3-----------3-------------|

Electric guitar
|-------0---let ring...-----------------------------------------------|
|------0-------------------------------------------0---let ring:------|
|-----0--------------------------------------------0------------------|
|----2----------------------------------------------------------------|
|---2-----------------------------------------------------------------|
|--0------------------------------------------------------------------|
                                                ^Volume goes up & down^
"...wilted scenes for us who couldn't wait..."
|--7-----7-----7-----7-----3-----3-----3-----3-----2-----2-----2-----2-
|--8-----8-8---8-----8-8---3-----3-3---3-----3-3---2-----2-2---2-----2-
|--9-----9-9-9-9-----9-9---4-----4-4-4-4-----4-4-4-2-----2-2-2-2-----2-
|--9-------9-9-9-------9---5-------5-5-5-------5-5-4-------4-4-4-------
|--7-----------7-----------5-----------5-----------4-----------4-------
|--------------------------3-----------3-----------2-----------2-------

----2-----2-----2-----2-------|
2---2-----2-2---2-----2-2-----|
2-2-3-----3-3-3-3-----3-3-3---|
4-4-4-------4-4-4-------4-4---|
----4-----------4-------------|
----2-----------2-------------|

"...drained by the coldest caress, stalking shadows ahead..."
Acoustic guitar
|--0-----0-----0-----0-----0-----0-----0-----0-----3-----3-----3-----3-
|--0-----0-0---0-----0-0---0-----0-0---0-----0-0---3-----3-3---3-----3-
|--0-----0-0-0-0-----0-0-0-0-----0-0-0-0-----0-0-0-3-----3-3-3-3-----3-
|--2-------2-2-2-------2-2-2-------2-2-2-------2-2-5-------5-5-5-------
|--2-----------2-----------2-----------2-----------5-----------5-------
|--0-----------0-----------0-----------0-----------3-----------3-------

----3-----3-----3-----3-------|
3---3-----3-3---3-----3-3-----|
3-3-3-----3-3-3-3-----3-3-3---|
5-5-5-------5-5-5-------5-5---|
----5-----------5-------------|
----3-----------3-------------|

Electric guitar
|-------0---let ring...-----------------------------------------------|
|------0-------------------------------------------0---let ring:------|
|-----0--------------------------------------------0------------------|
|----2----------------------------------------------------------------|
|---2-----------------------------------------------------------------|
|--0------------------------------------------------------------------|
                                                ^Volume goes up & down^


"...halo of death, all I see is departure - mourner's lament but it's me
who's the martyr"
|--7-----7-----7-----7-7---5-----5-----5-----5-5---5-----5-----5-----5-
|--8-----8-8---8-----8-8---5-----5-5---5-----5-5---5-----5-5---5-----5-
|--9-----9-9-9-9-----9-9---7-----7-7-7-7-----7-7---5-----5-5-5-5-----5-
|--9-------9-9-9-------9---7-------7-7-7-------7---7-------7-7-7-------
|--7-----------7-------7---5-----------5-------5---7-----------7-------
|--------------------------------------------------5-----------5-------


5---4-------------------------|
5---4-------------------------|
5---5-------------------------|
7---6-------------------------|
7---6-------------------------|
----4-------------------------|
VII.2nd transition:
|--------4-4-4-4-----4-4-4-3-----3-3-3-3-----3-3-3-3-----3-3-3-3-----3-
|--------4-4-4-4-----4-4-4-4-----4-4-4-4-----4-4-4-3-----3-3-3-3-----3-
|--5-------5---5-------5---5-------5---5-------5---4-------4---4-------
|--6-----------6-----------5-----------5-----------5-----------5-------
|--6-----------6-----------3-----------3-----------5-----------5-------
|--4-----------4-----------------------------------3-----------3-------

3-3---|
3-3---|
4-----|
------|
------|
------|

repeat IV
"pledge yourself to me never leave me be sweat breaks on my brow given time
ends now"

VIII. Guitar solo: rhythm acoustic guitar: repeat throughout the whole
solo...
|--1-----1-----1-----1-----0-----0-----0-----0-----4-----4-4---2-----2-
|--1-----1-1---1-----1-1---1-----1-1---1-----1-1---4-----4-4---3-----3-
|--1-----1-1-1-1-----1-1-1-2-----2-2-2-2-----2-2-2-4-----4-4---4-----4-
|--3-------3-3-3-------3-3-2-------2-2-2-------2-2-6-------6---4-------
|--3-----------3-----------0-----------0-----------6-------6---2-------
|--1-----------1-----------------------------------4-------------------

----3-----3-----3-----3------|
3---3-----3-3---3-----3-3----|
4-4-3-----3-3-3-3-----3-3-3--|
4-4-5-------5-5-5-------5-5--|
----5-----------5------------|
----3-----------3------------|

Lead Electric Guitar: 1.2.3.4.
|-------------------------------------------------------|El. Gtr I
|--3------5-6-5p3-------3-5---4-------------------------|
|-----------------5-----------------4-----3-------------|
|-----------------------------------------------5-------|
|-------------------------------------------------------|
|-------------------------------------------------------|

3.4.
|--1------3-5-3p1-------1-3-3/4-----2-----3-------------|El. Gtr II
|-----------------5-----------------------------3-------|
|-------------------------------------------------------|
|-------------------------------------------------------|
|-------------------------------------------------------|
|-------------------------------------------------------|
Electric guitar I
|----------9/10-12-13-10h12p10----10-12b-----------10h11-----10--------
|--3---------------------------13-------------------------------10-----
|------------------------------------------------------------------10--
|---------------------------------------------------------------------
|----------------------------------------------------------------------
|----------------------------------------------------------------------

-----------------|
---------11------|goes on...
------12----12---|
12---------------|
-----------------|
-----------------|
|----------------------------------------------------------------------
|----------------------------------------------------------------------
|--12\7-------------------------------7---9---10---8-------7/8---\7----
|-----------8-----7---5h7-----------7----------------------------------
|----------------------------------------------------------------------
|----------------------------------------------------------------------

-------------------------|
-------------------------|
-----8---7---8p7-5h7-----|
---7-----------------7---|
-------------------------|
-------------------------|

|----5---3h5---7h8p7--------------------------------------------------|
|--5-----------------10-----------------------------------------------|
|-----------------------9---------8-----7/8---8-7-5-------------------|
|---------------------------------------------------------------------|
|---------------------------------------------------0-----------/12---|
|-----------------------------------------------------3---6---3-------|

|----------------------------5/10-15p10\5-10b11-4-----6---7---6h7p6p4--
|----10---8/10-------------8-------------------------------------------
|--7------------------------------------------------------------------7
|----------------------------------------------------------------------
|----------------------------------------------------------------------
|----------------------------------------------------------------------

---|
---|
---|
---|
---|
---|

repeat IV & V again:
"spirit painted sin embers neath my skin veiled in pale embrace reached and
touched my face"


IX.3rd transition:
|--------------4-----4-----3-----3-3-3-3-----3-3-3-------x-----3---3--|
|------------4-4-----4-4---4-----4-4-4-4-----4-4-4-3---3-x-x---3---3--|
|--5-----5-5-5-5-----5-5-5-5-------5---5-------5---4---4-x-x-x-4---4--|
|--6-----6-6-6-6-------5-5-5-----------5-----------5---5---x-x-5---5--|
|--6-------6---6-----------3-----------3-----------5---5-------5---5--|
|--4-----------------------------------------------3---3-------3---3--|


repeat II

X. end with this Em:
|--0--|
|--0--|
|--0--|
|--2--|
|--2--|
|--0--|





Comments


Popular Opeth tabs & chords
By The Pain I See In Others Tabs
Coil 1 Tabs
Demon Of The Fall 1 Tabs
Forest Of October Tabs
Heir Apparent Intro 1 Tabs
Hex Omega Intro Tabs
Masters Apprentice (Intro) Tabs
Porcelain Heart 3 Tabs
Slither Tabs
The Funeral Portrait Tabs


Song lyrics



↑ Back to top | Tablatures and chords are parodies/interpretations of the original songs. You may use it for private study, scholarship, research or language learning purposes only
© 2014 AZChords.com Contact us | Privacy policy | DMCA | Add/correct tabs | Request tabs | Top 50 tabs