>
 >
Ghost Of Perdition

Ghost Of Perdition Guitar Tabs

Opeth - Ghost Of Perdition chords, tabs, tablatures, lyrics

Guitar lessons | Add/correct | Request | Top 50 tabs Artists:  A B C D E F G H I J K L M N O P Q R S T U V W X Y Z 0-9

Ghost Of Perdition Guitar Tabs – Opeth

CD, Sheet music, Poster

Do you like Ghost Of Perdition? Share with your friends now
TabsTabs v2Tabs v3Tabs v4
Guitar 1:Distortion Guitar(D A D F A D)
Guitar 2:Distortion Guitar(D A D F A D)
Guitar 3:Acoustic Guitar 12 String(D A D F A D)

Order:

h hammer on
p pull off
x percussion note
( ) ghost note
r rest

Intro:

Guitar 1:

D|------------------------|------------------------|
A|5-----------5-----------|4-----------4-----------|
F|4-----------4-----------|4-----------4-----------|
D|0-----------0-----------|0-----------0-----------|
A|0-----------------------|------------------------|
D|0-----------------------|------------------------|

D|--------------------------|--------------------------|
A|12-----------12-----------|--------------------------|
F|12-----------12-----------|12-----------11-----------|
D|12-----------12-----------|11-----------11-----------|
A|--------------------------|--------------------------|
D|--------------------------|--------------------------|

Section 1:

Both Guitars(Guitar 1&2) 

D|--0---0---0---0---------------------------|
A|--5---5---5---5---------------------------|
F|:-4---4---4---4---------------------------|
D|:-0---0---0---0---0-------0-------0---0---|
A|-(0)-(0)-(0)-(0)--0-------0-------0---0---|
D|------------------0-------0-------0---0---|

D|0---0---0---0---------------------------|
A|4---4---4---4---------------------------|
F|4---4---4---4---------------------------|
D|x---x---x---x---0-------0-------0---0---|
A|4---4---4---4---0-------0-------0---0---|
D|----------------0-------0-------0---0---|

D|-------------------------------------------------|
A|-------------------------------------------------|
F|-------------------------------------------------|
D|-------------------------------------------------|
A|/6-------6---5-----------3-------0---------------|
D|/6-------6---5-----------3-------0-------3-h4-h7-|

D|----------------------------------------------|
A|----------------------------------------------|
F|----------------------------------------------|
D|------------------------------3---4---3---0---|
A|-5-------5-------3---/5---5-------------------|
D|(0)------0------------------------------------|

D|------------------------------------------------|
A|------------------------------------------------|
F|------------------------------------------------|
D|----0-------------------4-------x---4-------x---|
A|4-------0-------3-------2-------x---2-------x---|
D|--------------------------------x-----------x---|

D|------------------------------------------------|
A|------------------------------------------------|
F|------------------------------------------------|
D|3-------x---3-------x---2---2---x---2-------2---|
A|1-------x---1-------x---0---0---x---0-------0---|
D|--------x-----------x-----------x---------------|

D|--------------------------------------------------|
A|--------------------------------------------------|
F|--------------------------------------------------|
D|--------------------------------------------------|
A|----------------3-h4-p3-------3-------0---0-------|
D|5-------5---5-------------5-------4-----------1---|

D|-------------------------------------|
A|-------------------------------------|
F|------------------------------------:|
D|------------------------------------:|
A|------------0-------0---0-------0----|
D|0-----------0-------0---0-------0----|

D|--0---0---0---0---------------------------|
A|--5---5---5---5---------------------------|
F|:-4---4---4---4---------------------------|
D|:-0---0---0---0---0-------0-------0---0---|
A|-(0)-(0)-(0)-(0)--0-------0-------0---0---|
D|------------------0-------0-------0---0---|

D|0---0---0---0---------------------------|
A|4---4---4---4---------------------------|
F|4---4---4---4---------------------------|
D|x---x---x---x---0-------0-------0---0---|
A|4---4---4---4---0-------0-------0---0---|
D|----------------0-------0-------0---0---|

D|--------------------------------------------------|
A|--------------------------------------------------|
F|--------------------------------------------------|
D|--------------------------------------------------|
A|/6-------6---5-----------3-------0----------------|
D|/6-------6---5-----------3-------0-------3-h4-h-7-|

D|----------------------------------------------|
A|----------------------------------------------|
F|----------------------------------------------|
D|------------------------------3---4---3---0---|
A|-5-------5-------3---/5---5-------------------|
D|(0)------0------------------------------------|

D|------------------------------------------------|
A|------------------------------------------------|
F|------------------------------------------------|
D|----0-------------------4-------x---4-------x---|
A|4-------0-------3-------2-------x---2-------x---|
D|--------------------------------x-----------x---|

D|------------------------------------------------|
A|------------------------------------------------|
F|------------------------------------------------|
D|3-------x---3-------x---2---2---x---2-------2---|
A|1-------x---1-------x---0---0---x---0-------0---|
D|--------x-----------x-----------x---------------|

D|--------------------------------------------------|
A|--------------------------------------------------|
F|--------------------------------------------------|
D|--------------------------------------------------|
A|/5-------5---5---5---5---5---h7---3-------3---1---|
D|/5-------5---5---5---5---5---h7---3-------3---1---|

D|-------------------------------------|
A|-------------------------------------|
F|------------------------------------:|
D|------------------------------------:|
A|0-----------0-------0---0-------0----|
D|0-----------0-------0---0-------0----|

D|-------------------------------------------------|
A|-------------------------------------------------|
F|-------------------------------------------------|
D|-------------------------------------------------|
A|5-------5---5-------5---5---h7-------------------|
D|5-------5---5-------5---5---h7---3-------3---1---|

D|------------------------------------|
A|------------------------------------|
F|------------------------------------|
D|------------------------------------|
A|0-----------0-------0---0-----------|
D|0-----------0-------0---0-----------|

Section 2:

Both Guitars(Guitar 1&2)

D|------------------------------------------------|
A|------------------------------------------------|
F|------------------------------------------------|
D|------------------------------------------------|
A|-----------(6)----------------------------------|
D|0---0---0---0-------0---*---0---0---0---0-------|

D|------------------------------------------------|
A|------------------------------------------------|
F|------------------------------------------------| play 5 times
D|------------------------------------------------|
A|------------------------------------------------|
D|0---0---0---0-------0---r---0---0---0---0-------|

D|------------------------------------------------|
A|------------------------------------------------|
F|------------------------------------------------|
D|------------------------------------------------|
A|--------5---------------5-----------5-------5---|
D|0-----------0-------0-------0-------------------|

D|------------------------------------------------|
A|------------------------------------------------|
F|------------------------------------------------|
D|----------------3---4---4---3---1---3---0---1---|
A|0-------4---5-----------------------------------|
D|0-----------------------------------------------|

D|-------------------------------------------------|
A|-------------------------------------------------|
F|-------------------------------------------------|
D|3-h4-p3-1---3---0---1---/7-------7---------------|
A|-------------------------------------------------|
D|-------------------------------------0-----------|

D|------------------------------------------------|
A|------------------------------------------------|
F|3-------3---3-------3---3-------3-------3-------|
D|3-------3---3-------3---3-------3-------3-------|
A|3-------3---3-------3---3-------3-------3-------|
D|3-------3---3-------3---3-------3-------3-------|

D|------------------------------------------------|
A|------------------------------------------------|
F|2-------2---2-------2---------------------------|
D|2-------2---2-------2---------------1-----------|
A|2-------2---2-------2---1-------1---1-----------|
D|2-------2---2-------2---1-------1---------------|

D|------------------------------------------------|
A|------------------------------------------------|
F|------------------------------------------------|
D|----------------3---4---4---3---1---3---0---1---|
A|0-------4---5-----------------------------------|
D|0-----------------------------------------------|

D|-------------------------------------------------|
A|-------------------------------------------------|
F|-------------------------------------------------|
D|3-h4-p3-1---3---0---1---/7-------7---------------|
A|-------------------------------------------------|
D|-------------------------------------0-----------|

D|------------------------------------------------|
A|------------------------------------------------|
F|3-------3---3-------3---3-------3-------3-------|
D|3-------3---3-------3---3-------3-------3-------|
A|3-------3---3-------3---3-------3-------3-------|
D|3-------3---3-------3---3-------3-------3-------|

D|------------------------------------------------|
A|------------------------------------------------|
F|2-------2---2-------2---------------------------|
D|2-------2---2-------2---1-------1-------1-------|
A|2-------2---2-------2---1-------1-------1-------|
D|2-------2---2-------2---1-------1-------1-------|

D|------------------------------------------------|
A|------------------------------------------------|
F|4---4---r---4---r---4---r---4---4---4---4---r---|
D|0---0---r---0---r---0---r---0---0---0---0---r---|
A|0---0---r---0---r---0---r---0---0---0---0---r---|
D|0---0---r---0---r---0---r---0---0---0---0---r---|

D|------------------------------------------------|
A|------------------------------------------------|
F|------------------------------------------------| play 2 times
D|------------------------------------------------|
A|------------------------------------------------|
D|0---0---0---0-------0---r---0---0---0---0-------|

D|------------------------------------------------|
A|------------------------------------------------|
F|------------------------------------------------|
D|------------------------------------------------|
A|-----------(6)----------------------------------|
D|0---0---0---0-------0---r---0---0---0---0-------|

D|------------------------------------------------|
A|------------------------------------------------|
F|------------------------------------------------| play 3 times
D|------------------------------------------------|
A|------------------------------------------------|
D|0---0---0---0-------0---r---0---0---0---0-------|

D|------------------------------------------------|
A|------------------------------------------------|
F|------------------------------------------------|
D|0-----------0-----------0-----------0-----------|
A|0-----------0-----------0-----------0-----------|
D|0-----------0-----------0-----------0-----------|

D|------------------------------------------------|
A|------------------------------------------------|
F|------------------------------------------------|
D|----------------3---4---4---3---1---3---0---1---|
A|0-------4---5-----------------------------------|
D|0-----------------------------------------------|

D|----------------------------------------------------|
A|----------------------------------------------------|
F|:---------------------------------------------------|
D|:3-h4-p3-1---3---0---1---/7-------7-----------------|
A|----------------------------------------------------|
D|--------------------------------------0-------(0)---|

D|------------------------------------------------|
A|------------------------------------------------|
F|3-------3---3-------3---3-------3-------3-------|
D|3-------3---3-------3---3-------3-------3-------|
A|3-------3---3-------3---3-------3-------3-------|
D|3-------3---3-------3---3-------3-------3-------|

D|-------------------------------------------------|
A|-------------------------------------------------|
F|2-------2---2-------2---------------------------:|
D|2-------2---2-------2---1-------1-------1-------:|
A|2-------2---2-------2---1-------1-------1--------|
D|2-------2---2-------2---1-------1-------1--------|

Section 3:

Both Guitars(Guitar 1&2)

D|-0---0---0---0---------------------------|
A|-5---5---5---5---------------------------|
F|-4---4---4---4---------------------------|
D|-0---0---0---0---0-------0-------0---0---|
A|(0)-(0)-(0)-(0)--0-------0-------0---0---|
D|-----------------0-------0-------0---0---|

D|0---0---0---0---------------------------|
A|4---4---4---4---------------------------|
F|4---4---4---4---------------------------|
D|x---x---x---x---0-------0-------0---0---|
A|4---4---4---4---0-------0-------0---0---|
D|----------------0-------0-------0---0---|

D|-------------------------------------------------|
A|-------------------------------------------------|
F|-------------------------------------------------|
D|-------------------------------------------------|
A|/6-------6---5-----------3-------0---------------|
D|/6-------6---5-----------3-------0-------3-h4-h7-|

D|----------------------------------------------|
A|----------------------------------------------|
F|----------------------------------------------|
D|------------------------------3---4---3---0---|
A|-5-------5-------3---/5---5-------------------|
D|(0)------0------------------------------------|

D|------------------------------------------------|
A|------------------------------------------------|
F|------------------------------------------------|
D|----0-------------------4-------x---4-------x---|
A|4-------0-------3-------2-------x---2-------x---|
D|--------------------------------x-----------x---|

D|------------------------------------------------|
A|------------------------------------------------|
F|------------------------------------------------|
D|3-------x---3-------x---2---2---x---2-------2---|
A|1-------x---1-------x---0---0---x---0-------0---|
D|--------x-----------x-----------x---------------|

D|--------------------------------------------------|
A|--------------------------------------------------|
F|--------------------------------------------------|
D|--------------------------------------------------|
A|----------------3-h4-p3-------3-------0---0-------|
D|5-------5---5-------------5-------4-----------1---|

D|------------------------------------|
A|------------------------------------|
F|------------------------------------|
D|------------------------------------|
A|------------0-------0---0-------0---|
D|0-----------0-------0---0-------0---|

D|-0---0---0---0---------------------------|
A|-5---5---5---5---------------------------|
F|-4---4---4---4---------------------------|
D|-0---0---0---0---0-------0-------0---0---|
A|(0)-(0)-(0)-(0)--0-------0-------0---0---|
D|-----------------0-------0-------0---0---|

D|0---0---0---0---------------------------|
A|4---4---4---4---------------------------|
F|4---4---4---4---------------------------|
D|x---x---x---x---0-------0-------0---0---|
A|4---4---4---4---0-------0-------0---0---|
D|----------------0-------0-------0---0---|

D|-------------------------------------------------|
A|-------------------------------------------------|
F|-------------------------------------------------|
D|-------------------------------------------------|
A|/6-------6---5-----------3-------0---------------|
D|/6-------6---5-----------3-------0-------3-h4-h7-|

D|----------------------------------------------|
A|----------------------------------------------|
F|----------------------------------------------|
D|------------------------------3---4---3---0---|
A|-5-------5-------3---/5---5-------------------|
D|(0)------0------------------------------------|

D|------------------------------------------------|
A|------------------------------------------------|
F|------------------------------------------------|
D|----0-------------------4-------x---4-------x---|
A|4-------0-------3-------2-------x---2-------x---|
D|--------------------------------x-----------x---|

D|------------------------------------------------|
A|------------------------------------------------|
F|------------------------------------------------|
D|3-------x---3-------x---2---2---x---2-------2---|
A|1-------x---1-------x---0---0---x---0-------0---|
D|--------x-----------x-----------x---------------|

D|-------------------------------------------------|
A|-------------------------------------------------|
F|-------------------------------------------------|
D|-------------------------------------------------|
A|5-------5---5---5---5---5---h7---3-------3---1---|
F|5-------5---5---5---5---5---h7---3-------3---1---|

D|-------------------------------------------------|
A|-------------------------------------------------|
F|-------------------------------------------------|
D|-------------------------------------------------|
A|0------------------------------------------------|
D|0------------------------------------------------|





Comments


Popular Opeth tabs & chords
Death Whispered A Lullaby Bass Tabs
To Bid You Farewell Bass Tabs
Coil Tabs
Death Whispered A Lullaby Tabs
Death Whispered A Lullabye Tabs
Deliverance Tabs
In My Time Of Need Tabs
Serenity Painted Death 1 Tabs
Slither Tabs
The Furneral Portrait Tabs


Song lyrics



↑ Back to top | Tablatures and chords are parodies/interpretations of the original songs. You may use it for private study, scholarship, research or language learning purposes only
© 2014 AZChords.com Contact us | Privacy policy | DMCA | Add/correct tabs | Request tabs | Top 50 tabs