» » »

Ending Credits Tabs (ver.1)

Artists:  A B C D E F G H I J K L M N O P Q R S T U V W X Y Z # 

Ending Credits Tabs (ver.1)

Opeth
Rating:
0/5 (0 votes)

Hard to play? Try these video lessons and learn fast.
                :35
e|---------------------------------------------------------------------------|
B|-------------------10---12---12---12-10-10h12------------------------------|
G|---------9-9h11-------9----------------------------------------------------|
D|--9-9h10-------------------------------------------------------------------|
A|---------------------------------------------------------------------------|
E|---------------------------------------------------------------------------|

 00:46
e|---------------------------------------------------------------------------|
B|---------------------------------------------------------------------------|
G|---------9-9h11--11/12-9------8-----2h4p2p0--------------------------------|
D|--9-9h10------------------9-7---9-----------4-2---(/9)---------------------|
A|---------------------------------------------------------------------------|
E|---------------------------------------------------------------------------|

 00:57
e|---------------------------------------------------------------------------|
B|-------------------10---12---12---12-10-10h12------------------------------|
G|---------9-9h11-------9----------------------------------------------------|
D|--9-9h10-------------------------------------------------------------------|
A|---------------------------------------------------------------------------|
E|---------------------------------------------------------------------------|

 01:09
e|---------------------------------------------------------------------------|
B|---------------------------------------------------------------------------|
G|---------9-9h11--11/12-9------8-----2h4p2p0--------------------------------|
D|--9-9h10------------------9-7---9-----------4-2----------------------------|
A|---------------------------------------------------------------------------|
E|---------------------------------------------------------------------------|

 01:20
e|---------------------------------------------------------------------------|
B|------------------------10-8-----8--8h10-----------------------------------|
G|--12-12-11h12p11-9-11---------11---------11-9------------------------------|
D|-----------------------------------------------9-10--10--9h10p9-7--7h9-----|
A|---------------------------------------------------------------------------|
E|---------------------------------------------------------------------------|

 01:36
e|---------------------------------------------------------------------------|
B|---------------------------------------------------------------------------|
G|--4p2p0--------2p0---0----2p0------2p0---0---------------------------------|
D|---------4--2------4---2------4--2-----4---2-------------------------------|
A|---------------------------------------------------------------------------|
E|---------------------------------------------------------------------------|

 01:48
e|---------------------------------------------------------------------------|
B|-------------------10---12---12---12-10-10h12------------------------------|
G|---------9-9h11-------9----------------------------------------------------|
D|--9-9h10-------------------------------------------------------------------|
A|---------------------------------------------------------------------------|
E|---------------------------------------------------------------------------|

 02:00
e|---------------------------------------------------------------------------|
B|---------------------------------------------------------------------------|
G|---------9-9h11--11/12-9------8-----2h4p2p0--------------------------------|
D|--9-9h10------------------9-7---9-----------4-2----------------------------|
A|---------------------------------------------------------------------------|
E|---------------------------------------------------------------------------|

 02:12
e|---------------------------------------------------------------------------|
B|-------------------10---12---12---12-10-10h12------------------------------|
G|---------9-9h11-------9----------------------------------------------------|
D|--9-9h10-------------------------------------------------------------------|
A|---------------------------------------------------------------------------|
E|---------------------------------------------------------------------------|

 02:23
e|----------------------------------------------------------------------------|
B|----------------------------------------------------------------------------|
G|---------9-9h11--11/12-9------8-----2h4p2p0---------------------------------|
D|--9-9h10------------------9-7---9-----------4-2-----------------------------|
A|----------------------------------------------------------------------------|
E|----------------------------------------------------------------------------|

 02:34
e|----------------------------------------------------------------------------|
B|------------------------10-8h10p8-----8--8h10-------------------------------|
G|--12-12-11h12p11-9-11--------------11---------11-9--------------------------|
D|----------------------------------------------------9-10--10--9h10p9-7--7h9-|
A|----------------------------------------------------------------------------|
E|----------------------------------------------------------------------------|

 02:50
e|---------------------------------------------------------------------------|
B|---------------------------------------------------------------------------|
G|--2h4p2p0----------2p0---0---2p0--------2p0---0---2p0--------2p0---0-------|
D|----------4--/5-2------4---2-----4-/5-2-----4---2-----4-/5-2-----4---2-----|
A|---------------------------------------------------------------------------|
E|---------------------------------------------------------------------------|
            
Hard to play? Try these video lessons and learn fast. | Correct




comments powered by Disqus
↑ Back to top | Tablatures and chords are parodies/interpretations of the original songs. You may use it for private study, scholarship, research or language learning purposes only