>
 >
Deliverence

Deliverence Guitar Tabs

Opeth - Deliverence chords, tabs, tablatures, lyrics

Guitar lessons | Add/correct | Request | Top 50 tabs Artists:  A B C D E F G H I J K L M N O P Q R S T U V W X Y Z 0-9

Deliverence Guitar Tabs – Opeth

CD, Sheet music, Poster

Do you like Deliverence? Share with your friends now
Tabs
i missed the solos because i don't know them lol

Band-Opeth By the way i couldnt listen to the song at the time so this is all by memory
Song-Deliverence
Album-Deliverence

Standard tuning

/ slide     p  pull off       h   hammer on

. palm mute      
( ) rest fingers over strings

intro

E|------------------------------|Repeat x 17
B|------------------------------|            
G|------------------------------|            
D|-14-14-14-14-14-14-14-14-14-14|            
A|-13-13-13-13-13-13-13-13-13-13|            
E|-12-12-12-12-12-12-12-12-12-12|            
       .     .     .  .  .  .  .
Part 1
E|---------------------------|
B|---------------------------|
G|---------------------------|
D|---------------------------|
A|-2-2-2--2-2-2--2-2-2--2-2-2|
E|-0-0-0--0-0-0--0-0-0--0-0-0|

Part 2
E|-------------------------------------------------------------------------------|Repeat x 4
B|-------------------------------------------------------------------------------|
G|-------------------------------------4/5-5-------------------------------------|
D|-4-4--4-4-4-4-4-4--4-4--4-4-4-4-4-4--------------------------------------------|
A|-3-3--3-3-3-3-3-3--3-3--3-3-3-3-3-3--2/3-3--2-2--2/7-7-7-7---8h9---------------|
E|-2-2--2p0-2p0-2p0--2-2--2p0-2p0-2p0---------0-0-------------0---8\6-4-6\3-4-2-0|

Part 3
E|----------------------|
B|----------------------|
G|----------------------|
D|----------------------|
A|------3-2---5-4---6h7-|
E|-0-1-2---3/4---5/6---0|

        Acoustic Part
E|-----------| If u know the song, u will know how many times to repeat it.
B|-----------|
G|---0-----0-|
D|---7-----7-|
A|--7--7--7--|
E|-0-----0---|
Part 4
E|--------------------------------------------------------------
B|--------------------------------------------------------------
G|--------------------------------------------------------------
D|-4-4-4-4-4-4-4-4-4-4-4-4-4-4-4-4-4-4-4-4-4-4-4-4-4-4-4-4-5-5-5
A|--------------------------------------------------------------
E|-2-2-2-0-2-2-2-0-2-2-2-0-2-2-2-0-2-2-2-0-2-2-2-0-2-2-2-0-3-3-3
          .               .               .               . 
Acoustic part again

Part 4 again

Part 5
E|----------------------------------------------------|
B|----------------------------------------------------|
G|----------------------------------------------------|
D|----------------------------------------------------|
A|2-2-2--2-2-2--2-2-2--2-2-2--2-2-2--2-2-2--2-2-2--2-2|
E|0-0-0--0-0-0--0-0-0--0-0-0--0-0-0--0-0-0--0-0-0--0-0|

Part 2 again

Part three but end on
E|--|
B|--|
G|--|
D|--|
A|-7|
E|--|

Part 6

E|------------------------------------------------------|Repeat x 4
B|------------------------------------------------------|
G|------------------------------------------------------|
D|4-4-4--4-4-4--5-5-5--5-5-5--7-7-7--7-7-7--9-9-9--3-3-3|
A|------------------------------------------------------|
E|2-2-2--2-2-2--0-0-0--0-0-0--5-5-5--5-5-5--7-7-7--1-1-1|

on last one end in 
E|-|
B|-|
G|-|
D|-|
A|2|
E|0|

Part 7              Part 8
E|---------|-----------------------------------------------------|Repeat x8o-
B|---------|-----------------------------------------------------|
G|---------|-----------------------------------------------------|
D|-5-5--3-3|-4-4--4--4--4-4--4--4--7-7--7-7--5-5--3-3-3-3--------|
A|-3-3--1-1|-2-2--0--0--2-2--0--0--5-5--3-3--2-2-----------0h1---|
E|---------|--------------------------------------1-1-1-1-----3p0|

Goes over part 8 from 6th time twice
E|----------------------------------------------------------------------------------------------------|
B|----------------------------------------------------------------------------------------------------|
G|-7-7-7-7-7-7-9-9-9-9-5-5-5-5-5-5-7-7-7-7-4-4-4-4-4-4-9-9-9-9-7-7-7-7-12-12-12-12-10-10-10-10-9-9-9-9|
D|----------------------------------------------------------------------------------------------------|
A|----------------------------------------------------------------------------------------------------|
E|----------------------------------------------------------------------------------------------------|

Part 9
E|---------------------------------------|Repeat x4 i think
B|---------------------------------------|
G|---------------------------------------|
D|-4-------------------------------------|
A|-4--2--2--2-2-2-2-2--8--8-8-8--7--7-7-7|
E|-2--0--3--3-3-3-3-3--6--6-6-6--5--5-5-5|
Repeat part 8 6 times

Part 10
E|--------------------------------------------------------| If You Know the song you will 
B|--------------------------------------------------------| Know how many times to repeat it
G|--------------------------------------------------------|
D|--------------------------------------------------------|
A|-------------------------------------------------3/4/5h7|
E|0-0-0-0-0-0-0-0-0-0-0-0-0-0-0-0-0-0-0-0-0-0-0-0h2-------|

Solo then..
2nd Acoustic part
E|----------------------------------------------------------------------| If you know the song you will
B|---0---------------0-----0-----0---0----------------14-14-14--14-14-14| know how many times to repeat it
G|--0-0---0--0------0-0---0-0---0---0---0--0-0--------13-13-13--13-13-13|
D|-0---0-0--0--0-0-0---0-0---0-0---0---0--0-----0-----11-11-11--11-11-11|
A|2-----4--6--8-6-4-----3-----3---2---4--6--8-10--12--12-12-12--12-12-12|
E|----------------------------------------------------------------------|

part 11
E|7---6---4---4---4-4-| Repeat while second part is going on
B|-0-0-0-0-0-0-0-0-0-0|
G|--------------------|
D|--------------------|
A|--------------------|
E|--------------------|

second part of part 11
E|-----------------------------------------------------------------------------------------------|
B|-----------------------------------------------------------------------------------------------|
G|-----------------------------------------------------------------------------------------------|
D|-----------------------------------------------------------------------------------------------|
A|2-2-2-2--2-2-2-2-2-2--2-2-2-2--2--2-2-2-2-2-2---2-2-2-2-2-2-2-2--------------------------------|
E|0-0-0-0--0-0-0-0-0-0--0-0-0-0--0--0-0-0-0-0-0---0-0-0-0-0-0-0-0---0-(0)-(0)-0-(0)-(0)-0-(0)-(0)|
   . . . .  . . . . . .  . . . .  .  . . . . . .   . . . . . . . .   .  .   .  .  .   .  .  .   .

    ^ ^ If you know the song u will know how many time to repeat it ^ ^

part 12
E|--------|Repeat along to the second part of part 12
B|--------|
G|-5-4-0-1|
D|--------|
A|--------|
E|--------|

second part of part 12
E|---------------|*repeat around 30 times each fast
B|---------------|
G|---------------|
D|-9-----2-----5-|
A|-9-----2-----5-|
E|-7*----0*----3*|

Then keep repeating part 11 and part 12 till the end.





Comments


Popular Opeth tabs & chords
Ending Credits 2 Bass Tabs
Patterns In The Ivy Bass Tabs
The Lotus Eater Bass Tabs
To Bid You Farewell 2 Bass Tabs
Patterns In The Ivy Chords
Ending Credits 1 Tabs
Grand Conjuration Intro Tabs
Hessian Peel Tabs
The Apostle In Triumph Tabs
Patterns In The Ivy Ukulele


Song lyrics



↑ Back to top | Tablatures and chords are parodies/interpretations of the original songs. You may use it for private study, scholarship, research or language learning purposes only
© 2014 AZChords.com Contact us | Privacy policy | DMCA | Add/correct tabs | Request tabs | Top 50 tabs