» » »

Opeth, Atonement Tabs (ver.1)

Artists:  A B C D E F G H I J K L M N O P Q R S T U V W X Y Z # 

Atonement Tabs (ver.1)

Opeth Tabs
Rating:
3/5 (5 votes)
Atonement lessons Tabs too difficult? Try these video lessons and learn fast
                


Tuning E standard

h-hammer on
p-pull off
\-slide
s over note - sweep
b- bend to
r- release to


Guitar 1 - Rhythm

---------------------------------|
---------------------------------|
---------------------------------|
---7----7----7-------------------|
-----0----0----------------------|
-5--------------5----------------|

Guitar 2 - Lead

-------------------------------------------------|
-------------------------------------------------|
-----6-7-9-12-9h12p9\7---6h9--7--7h9p7p6---------|
---7-------------------------------------7-------|
-0-----------------------------------------------|
-------------------------------------------------|
 s s s


------------------------------------------------|
--------------10--------------------------------|
-----6-7-9-12----7h9-9--------------------------|
---7--------------------------------------------|
-0----------------------------------------------|
------------------------------------------------|

 s s s

------------------------------------------------|
----------10------------------------------------|
-6-7-9-12----9-12----9--------------------------|
------------------12---11b12r11-----------------|
------------------------------------------------|
------------------------------------------------|


------------------------------------------------|
----10-8----------------------------------------|
--9------7-6-7----------------------------------|
11-------------5h7-5-0h2p0----------------------|
---------------------------4--------------------|
------------------------------------------------|

s s s

Guitar 3 Keyboard

------------------------------------------------|
------------------------------------------------|
-14--12--9--7-6-14--12-9-7-6--14~---------------|
------------------------------------------------|
------------------------------------------------|
------------------------------------------------|

Guitar 4 (Keyboard?) that follows the vocal line

-------------------------------------------------------------------|
-------------------------------------------------------------------|
-------------------------------------------------------------------|
-------------------------------------------------------------------|
------------------------10-9-7--------------------------10-12-8-7--|
-11-11-9-9-11-12-11-8-9----------11-11-9-9-11-12-11-8-9------------|
            
Submit corrections

comments powered by Disqus
↑ Back to top | Opeth Tabs for Atonement. Lyrics for acoustic guitar and electric guitar. Tablatures and chords are parodies/interpretations of the original songs. You may use it for private study, scholarship, research or language learning purposes only