>
 >
Advent

Advent Bass Tabs

Opeth - Advent chords, tabs, tablatures, lyrics

Guitar lessons | Add/correct | Request | Top 50 tabs Artists:  A B C D E F G H I J K L M N O P Q R S T U V W X Y Z 0-9

Advent Bass Tabs – Opeth

CD, Sheet music, Poster

Do you like Advent? Share with your friends now
Bass TabsTabs
                                ADVENT
                         As recorded by OPETH
                  (From the 1996 Album MORNINGRISE)




Gtr I (E A D G) - 'Johan DeFarfalla, Clean Bass'



[00:17-00:53]

Play 6x, on the last time play until + only.
                                                                       +
|----------------------------------------------------------------------------
|----------------------------------------------------------------------------
|-------------------------------------10-9-7-7-7-7-7-7-10-9h10p9h10p9-7-6-6-7
|0-0-0-0-0-0-0-0-0-0-0-0-0-0-0-0-5-7-7---------------------------------------

[00:54-1:07]

|-----|
|-----|
|-8-8-|
|-----|

[1:07-1:17]

|-4h5-4-2-1-2-------2-------2-------2-----|
|-------------2---2---2---2---2---2---2---|
|---------------0-------0-------0-------0-|
|-----------------------------------------|

[1:18-1:36]

Play 4x

|-----------------------------------------|
|-----------------0-----------------------|
|-1-1-1-------------------------------1-1-|
|-------3-0-0-0-0---0-0-0-0-3-2-2-2-3-----|

[1:36-1:37]

|-----------|
|-----------|
|-1-1-1-1-1-|
|-----------|

[1:38-1:56]

|---------------------------------------|
|-----------------0---------------------|
|-1-1-1-----------------------------1-1-|
|-------3-0-0-0-0---0-0-0-0-3-2-2-0-----|

[1:56-2:03]

|-------------------|
|-------------------|
|-1-1-1-------------|
|-------5-5/8-7-3-0-|

[2:03-2:39]

Play 4x

|-----------------------------------------------------------------------------------
|-----------------------------------------------------------------7-----------------
|-5-7---------------5h7---------------5h7-------5/7-------------------8-7-5---5-----
|-----0-0-0-0-0-0-0-----0-0-0-0-0-0-0-----6-6-6-----6-6-6-5\3-5-5---5-------8---7h8-

---------------|
---------------|
---------------|
-0-0-0-0-0-4-4-|

[2:42-2:48]

Play 3x

|-----------------------|
|-----7-----------------|
|-0-0---0-8-7-5---5-----|
|---------------8---7/8-|

[2:48-2:57]

Play 9X

|---------|
|---------|
|-2-2-2-2-|
|---------|

[2:48-3:06]

Play 3x

|-----------------------|
|-----7-----------------|
|-0-0---0-8-7-5---5-----|
|---------------8---7/8-|

[3:06-3:15]

Play 8x

|---------|
|---------|
|-2-2-2-2-|
|---------|

[3:22-3:30]

Play 4x

|-----------|
|-0---------|
|---0-1-0---|
|---------0-|

[3:30-3:47]

Play 8x

|---9/11\9/11\9/11\9/11\9-|
|-9-----------------------|
|-------------------------|
|-------------------------|

[3:47-4:04]

Play 8x

|-----------|
|-0---------|
|---0-1-0---|
|---------0-|

[4:04-4:20]

Play 8x

|---9/11\9/11\9/11\9/11\9-|
|-9-----------------------|
|-------------------------|
|-------------------------|

[4:24-4:26]

|-------------------/4-2-0-------|
|--------------------------4-2-0-|
|-4-4-4-4-4-4-4-4-4--------------|
|--------------------------------|

[4:26-4:51]

Play 4x

|-------------------------------------------------------------/4-2-0-------|
|--------------------------------------------------------------------4-2-0-|
|-2-2-2-2-2-2-2-2-2-2-5-5-5-5-5-5-5-5-5-5-4-4-4-4-4-4-4-4-4-4--------------|
|--------------------------------------------------------------------------|

[5:03-5:04]

|-/4-2-0-------|
|--------4-2-0-|
|--------------|
|--------------|

[5:05-5:30]

Play 4x

|-------------------------------------------------------------/4-2-0-------|
|--------------------------------------------------------------------4-2-0-|
|-2-2-2-2-2-2-2-2-2-2-5-5-5-5-5-5-5-5-5-5-4-4-4-4-4-4-4-4-4-4--------------|
|--------------------------------------------------------------------------|

[5:30-5:42]

|---------------------------------------------------------------------------
|---------------------------2---2/4-----------------------------------------
|-4-4-4-4-4-4-4-4-4-4-1-4-5---5-----5-5-5-5-5-5-5-5-5-5-5-5-5-5-5-5-5-5-5-5-
|---------------------------------------------------------------------------

-------------------------------------------------------------------|
-------------------------------2---2/4-----------------------------|
-------------------------1-4-5---4-----2-2-2-2-2-2-2-2-2-2---------|
-5-5-5-5-5-5-5-5-5-5-5-5-----------------------------------2-2-2-2-|

[5:42-5:48]

|-------------|
|-------------|
|-----------5-|
|-7-5-3-0-0---|

[5:49-6:15]

|-----------------------------------------------------------------------------
|-------9-------7-7-------5-5-5-----------------9-------7-7-------5-5-5-------
|---9-9---9---------7-----------5-------5---9-9---9---------7-----------5-----
|-7---------7-5-------5-3---------3-0-0---7---------7-5-------5-3---------3-0-

------------------------------------------------------------------------------
----------9-------7-7-7-------------5-------------9-9-9---------7---7---5-5-5-
--5---9-9---9-----------7-7-7---------5-5-----0---------9-----7---7-----------
0---7---------7-5-------------5-3-3-------0-0---7---------7-5---------3-------

-----------|
-----------|
-5-------5-|
---3-0-0---|

[6:16-6:41]

Play 4x

|-------------------|
|-------------------|
|-------------------|
|-5-5-5-5-3-2-2-2-2-|

[6:42-7:08]

|-----------------------------------------------------------------------------
|-------9-------7-7-------5-5-5-----------------9---------7---7---5-5-5-------
|---9-9---9---------7-----------5-5-----5---9-9---9-----7---7-----------5-5---
|-7---------7-5-------5-3-----------0-0---7---------7-5---------3-----------0-

------------------------------------------------------------------------------
----------9-------7-7---------5-----------------9---------7---7-------5-------
--5---9-9---9---------7-----5---5-5-----5---9-9---9-----7---7-----5-5---5-5---
0---7---------7-5-------5-3---------0-0---7---------7-5---------3-----------0-

----|
----|
--5-|
0---|

[7:08-7:22]

Play 2x

|---------------------|
|---------------------|
|---------------------|
|-5-5-0-5-5-3-2-2-2-2-|

[8:02-8:06]

|-------|
|-------|
|-5-8-7-|
|-------|

[8:10-8:15]

|-----------3-2-0---------------|
|-0---------------3-2-0---------|
|---0-1-0-0-------------0-0-0-0-|
|-------------------------------|

[8:16-8:54]

Play 6x

|---------------------------------------------------------------------|
|-0-0-0-0-0-----------------------------------------------------------|
|-----------0-0-0-0-0-1-1-1-1-1-0-0-0-0-0-0-0-0-0-0-0-1-0-0---0-1-0-0-|
|-----------------------------------------------------------3---------|

[8:54-9:18]

Play 8x, on the last time play until + only.

                                +
|-----------------------------------------|
|-----------------------------------------|
|-7-7-7-5-----------5-7-7-7-5---5-5-5---5-|
|---------8-7-7-7-8-----------7-------7---|

[9:19]

|-----|
|-7-6-|
|-----|
|-----|

[9:31}

|-----|
|-----|
|-0-7-|
|-----|

[9:32-9:43]

Play 8x,on the last time play until + only.

        +
|---------4-5-4-----|
|-----4-7-------7-4-|
|-6-7---------------|
|-------------------|

[9:43]

|-----|
|-----|
|---5-|
|-3---|

[9:43-9:55]

Play 8x,on the last time play until + only.

        +
|---------2-3-2-----|
|-----2-5-------5-2-|
|-4-5---------------|
|-------------------|

[9:55-9:58]

|-------|
|-------|
|-------|
|-0-0-0-|

[9:58-10:11]

Play 4x

|------------------------------------|
|------------------------------------|
|-5/6-6-6\5-5-5/10-10-10\9-9-9\6-6\5-|
|------------------------------------|

[10:11-10:23]

Play 2x

|---------------------------------------|
|---------------------------------------|
|-2-1-1-----------2-1-1-----------------|
|-------0-0-0-0-0-------0-0-0-0-0-0-0-0-|

[10:24-10:36]

Play 4x

|------------------------------------|
|------------------------------------|
|-5/6-6-6\5-5-5/10-10-10\9-9-9\6-6\5-|
|------------------------------------|

[10:36-10:49]

Play 2x

|---------------------------------------|
|---------------------------------------|
|-2-1-1-----------2-1-1-----------------|
|-------0-0-0-0-0-------0-0-0-0-0-0-0-0-|

[10:49-11:01]

Play 4x

|------------------------------------|
|------------------------------------|
|-5/6-6-6\5-5-5/10-10-10\9-9-9\6-6\5-|
|------------------------------------|

[11:09- end]

|-------|
|-------|
|-------|
|-0-1-0-|





Comments


Popular Opeth tabs & chords
Blackwater Park 1 Bass Tabs
Deliverance Bass Tabs
Deliverance 2 Bass Tabs
The Night And The Silent Water Bass Tabs
To Bid You Farewell 2 Bass Tabs
Harvest 2 Tabs
Madrigal Tabs
Madrigal (Intro) Tabs
Requiem Tabs
Wreath Tabs


Song lyrics



↑ Back to top | Tablatures and chords are parodies/interpretations of the original songs. You may use it for private study, scholarship, research or language learning purposes only
© 2014 AZChords.com Contact us | Privacy policy | DMCA | Add/correct tabs | Request tabs | Top 50 tabs