>
 >
Zero Zero 1

Zero Zero 1 Guitar Tabs

Operator Please - Zero Zero 1 chords, tabs, tablatures, lyrics

Guitar lessons | Add/correct | Request | Top 50 tabs Artists:  A B C D E F G H I J K L M N O P Q R S T U V W X Y Z 0-9

Zero Zero 1 Guitar Tabs – Operator Please

CD, Sheet music, Poster

Do you like Zero Zero 1? Share with your friends now
TabsTabs v2
start

0:01 - 0:27 Guitar #1

e|----------------------|
B|----------------------|
G|----------------------|
D|-9-9-9-9-9-9-10-9-----| x18
A|----------------------|
E|----------------------|

e|----------------------|
B|----------------------|
G|----------------------|
D|-9-9-9-9-9-9-9-9------| x2
A|----------------------|
E|----------------------|

0:06 - 0:27 Guitar #2


e|----------------------|
B|----------------------|
G|-4----5----4----------|
D|-4----5----4----------|  x3
A|-2----3----2----------|
E|----------------------|

e|----------------------|
B|----------------------|
G|-4----5----4-4-4-4-4--|
D|-4----5----4-4-4-4-4--|
A|-2----3----2-2-2-2-2--|
E|----------------------|

0:27 - 0:47 Bass

e|----------------------|
B|----------------------|
G|----------------------|
D|---0-----0-2-3-4-3----| x3
A|-2---2-2--------------|
E|----------------------|

e|----------------------|
B|----------------------|
G|----------------------|
D|---0-----0-2-3-4------|
A|-2---2-2--------------|
E|----------------------|

e|----------------------|
B|----------------------|
G|----------------------|
D|---0-----0-2-3-4-3----| x3
A|-2---2-2--------------|
E|----------------------|

e|----------------------|
B|----------------------|
G|----------------------|
D|---0-----0-2-3-4------|
A|-2---2-2--------------|
E|----------------------|

0:47 - 0:59 Guitar

e|-------------------------------|
B|-12t--14t-15t-14t-11-11-11-11--|
G|-------------------------------|
D|-------------------------------|
A|-------------------------------|
E|-------------------------------|

e|-------------------------------|
B|-12t--14t-15t-14t-15-15-15-14--|
G|-------------------------------|
D|-------------------------------|
A|-------------------------------|
E|-------------------------------|

0:59 - 1:19 Bass

e|----------------------|
B|----------------------|
G|----------------------|
D|---0-----0-2-3-4-3----| x3
A|-2---2-2--------------|
E|----------------------|

e|----------------------|
B|----------------------|
G|----------------------|
D|---0-----0-2-3-4------|
A|-2---2-2--------------|
E|----------------------|

e|----------------------|
B|----------------------|
G|----------------------|
D|---0-----0-2-3-4-3----| x3
A|-2---2-2--------------|
E|----------------------|

e|----------------------|
B|----------------------|
G|----------------------|
D|---0-----0-2-3-4------|
A|-2---2-2--------------|
E|----------------------|

1:19 - 1:41 Violin (on guitar)

e|-19-21-19---19-21-19--19-21-19-19-17----17-------------|
B|-------------------------------------19----19-17-19----|
G|-------------------------------------------------------| x 4
D|-------------------------------------------------------|
A|-------------------------------------------------------|
E|-------------------------------------------------------|

1:41 - 2:01 Guitar


e|----------------------|
B|----------------------|
G|-4----5----4----------|
D|-4----5----4----------|  x3
A|-2----3----2----------|
E|----------------------|

e|----------------------|
B|----------------------|
G|-4----5----4-4-4-4-4--|
D|-4----5----4-4-4-4-4--|
A|-2----3----2-2-2-2-2--|
E|----------------------|

2:02 - 2:45 Keyboards (on guitar)

e|----------------------------------------|
B|----------------------------------------|
G|----------------------------------------|
D|----9--9--9--9---9----8--8--8--8---8----|  x8
A|----------------------------------------|
E|--7--7--7--7--7-----6--6--6--6--6-------|

2:39 - 2:45 Guitar

e|-19t-19t-17t-19t---------------|
B|-------------------------------|
G|-------------------------------|
D|-------------------------------|
A|-------------------------------|
E|-------------------------------|

2:45 - 3:05 Violin (on guitar)

e|-19-20-19---19-20-19--19-20-19-19-17----17-------------|
B|-------------------------------------19----19-17-19----|
G|-------------------------------------------------------| x 4
D|-------------------------------------------------------|
A|-------------------------------------------------------|
E|-------------------------------------------------------|

3:05 - 3:07 Bass

e|----------------------|
B|----------------------|
G|----------------------|
D|---0-----0-2-3-4------|
A|-2---2-2--------------|
E|----------------------|

end





Comments


Popular Operator Please tabs & chords
What You Want Bass Tabs
Pantomime Chords
Pantomime 1 Chords
Just A Song About Ping Pong Tabs
Leave It Alone Intro Tabs
Pantomime Tabs
Terminal Disease Tabs
Yes Yes Tabs
Zero Zero Tabs
Other Song Ukulele


Song lyrics



↑ Back to top | Tablatures and chords are parodies/interpretations of the original songs. You may use it for private study, scholarship, research or language learning purposes only
© 2014 AZChords.com Contact us | Privacy policy | DMCA | Add/correct tabs | Request tabs | Top 50 tabs