» » »

Operator Please, Zero Zero Tabs (ver.1)

Artists:  A B C D E F G H I J K L M N O P Q R S T U V W X Y Z # 

Zero Zero Tabs (ver.1)

Operator Please Tabs
 Rating:
4/5 (5 votes)
Zero Zero lessons Tabs too difficult? Try these video lessons and learn fast
                ----------------------------------------------------------------------------
----------------------------------------------------------------------------
Tuning: Standard

b= bend
x= mute string

~INTRO/POST CHORUS RIFF~

Guitar 1: only in intro
e|-----------|
B|-----------|
G|--444444b--|
D|-----------|
A|-----------|
E|-----------|
          x20

Guitar 2: comes in after guitar 1 4th time
e|---------------|-------------------------------------------|
B|---------------|-444-x-5-x-4-x--444-x-5-x-444444444444444--|
G|---------------|-444-x-5-x-4-x--444-x-5-x-444444444444444--|
D|--4-x-5-x-4-x--|-444-x-5-x-4-x--444-x-5-x-444444444444444--|
A|--2-x-3-x-2-x--|-222-x-3-x-2-x--222-x-3-x-222222222222222--|
E|---------------|-------------------------------------------|
               x2                                          x1

~VERSE RIFF~

e|---------------|----------------|
B|---------------|----------------|
G|---------------|----------------|
D|---------2343--|---------234-x--|
A|-22b222b-------|-22b222b--------|
E|---------------|----------------|
               x3     then this x1

~CHORUS RIFF~

Guitar 1:
e|--------------------------------------|
B|-----4444x----7777x-------------------|
G|--4x-4444x-7x-7777x----3333x----333x--|
D|--4x-4444x-7x-7777x-4x-4444x-4x-444x--|
A|--2x-2222x-5x-5555x-4x-4444x-4x-444x--|
E|--------------------2x-2222x-2x-222x--|

Guitar 2:
e|---------------------------------|
B|-----4444x----7777x--------------|
G|--4x-4444x-7x-7777x--------------|
D|--4x-4444x-7x-7777x-4------------|
A|--2x-2222x-5x-5555x-4-4--4-4--4--|
E|--------------------2--22-2-22---|

~OUTRO~
e|---------------|
B|---------------|
G|---------------|
D|---------234x--|
A|-22b222b-------|
E|---------------|

~~STRUCTURE~~
Intro
Verse 1- riff x2
Instrumental Chorus- riff x2
Verse 2- riff x2
Chorus- riff x4
Post Chorus
Bridge- no guitar
Chorus- riff x4
Outro

And that's it. It's really simple and fun to play.
            
Submit corrections

comments powered by Disqus
↑ Back to top | Operator Please Tabs for Zero Zero. Lyrics for acoustic guitar and electric guitar. Tablatures and chords are parodies/interpretations of the original songs. You may use it for private study, scholarship, research or language learning purposes only