» » »

What You Want Bass tabs (ver.1)

Artists:  A B C D E F G H I J K L M N O P Q R S T U V W X Y Z # 

What You Want Bass tabs (ver.1)

Operator Please
Rating:
2/5 (2 votes)

Hard to play? Try these video lessons and learn fast.
                BAND: OPERATOR PLEASE
Hey Just Thought Id Share This Awsome Bass Line
Ive Added The Guitar Intro And Verse Thatnks To Whoever Put it On here

	
BASS

Verse x15 
G|--------------------------|
D|--------------------------|
A|---------2-4----2-2---6-9-|
E|-1--2-2------5------------|

Chorus x2 
G|-------------------------|
D|-------------------------|
A|-44444444-666666666------|
E|-------------------2-----|

Verse x10 
G|--------------------------|
D|--------------------------|
A|---------2-4----2-2---6-9-|
E|-1--2-2------5------------|

Chorus x4 
G|-------------------------|
D|-------------------------|
A|-44444444-666666666------|
E|-------------------2-----|

1st interlude 
G|--------------------------|
D|--------------------------|
A|-4-4~---6-6~--9-9~--6-6~--|
E|--------------------------|


G|--------------------------|
D|--------------------------|
A|-6~~~----6~~~--6~~~--6~~~-|
E|--------------------------|

Optional keys part 
G|------------------------------------------------|
D|-~~---------------------------------------------|
A|-9--6--4~~-2-2-4-4~-22222-4-4~-2----------------|
E|---------------------------------5-2-2-2~~-4-1~-|

Verse x3 
G|--------------------------|
D|--------------------------|
A|---------2-4----2-2---6-9-|
E|-1--2-2------5------------|

Chorus x4 
G|-------------------------|
D|-------------------------|
A|-44444444-666666666------|
E|-------------------2-----|

2nd interlude 
G|--------------------------|
D|--------------------------|
A|-4-4~---6-6~--9-9~--6-6~--|
E|--------------------------|


G|--------------------------|
D|--------------------------|
A|-6~~~----6~~~--6~~~--6~~~-|
E|--------------------------|

GUITAR

Main riff
e|---------------00-------22-------4-|
B|-2-1-2--22-222----2-222----2-222---|
G|-----------------------------------|
D|-----------------------------------|
A|-----------------------------------|
E|-----------------------------------|

Verse
e|-----------------------------------|
B|-2-1-2-----------------------------|
G|-----------------------------------|
D|-----------------------------------|
A|-----------------------------------|
E|-----------------------------------|
            
Hard to play? Try these video lessons and learn fast. | Correct




comments powered by Disqus
↑ Back to top | Tablatures and chords are parodies/interpretations of the original songs. You may use it for private study, scholarship, research or language learning purposes only