» » »

Operator Please, Pantomime Tabs (ver.1)

Artists:  A B C D E F G H I J K L M N O P Q R S T U V W X Y Z # 

Pantomime Tabs (ver.1)

Operator Please Tabs
Rating:
5/5 (1 vote)
Pantomime lessons Tabs too difficult? Try these video lessons and learn fast
                Verse:

e|--7--7--2--2--0-2-0-2-2---7--7--2--2--0-2-0-2-2--|
B|--0--0--0--0--0-0-0-0-0---0--0--0--0--0-0-0-0-0--|
G|--0--0--0--0--0-0-0-0-0---0--0--0--0--0-0-0-0-0--|
D|-------------------------------------------------|
A|-------------------------------------------------|
E|-------------------------------------------------|

e|--7--7--2--2--0-2-0-2-2---7--7--2--2--0-2-0------|
B|--0--0--0--0--0-0-0-0-0---0--0--0--0--0-0-0-3----|
G|--0--0--0--0--0-0-0-0-0---0--0--0--0--0-0-0-2----|
D|-------------------------------------------------|
A|-------------------------------------------------|
E|-------------------------------------------------|

Chorus:

D, Am, Em

D
e|--2--|
B|--3--|
G|--2--|
D|-----|
A|-----|
E|-----|

Am
e|-----|
B|--2--|
G|--3--|
D|--3--|
A|-----|
E|-----|

Em
e|-----|
B|-----|
G|-----|
D|--2--|
A|--2--|
E|-----|



Hopefully this is all correct, but this is my first tab so sorry if it's not that good! :)
            
Submit corrections

comments powered by Disqus
↑ Back to top | Operator Please Tabs for Pantomime. Lyrics for acoustic guitar and electric guitar. Tablatures and chords are parodies/interpretations of the original songs. You may use it for private study, scholarship, research or language learning purposes only