» » »

Operator Please, Other Song Bass tabs (ver.1)

Artists:  A B C D E F G H I J K L M N O P Q R S T U V W X Y Z # 

Other Song Bass tabs (ver.1)

Operator Please Tabs
Rating:
5/5 (1 vote)
Other Song lessons Tabs too difficult? Try these video lessons and learn fast
                DURATION: 3:20


i quite like this song. its got good  balance between the 
and the guitar/bass/violin.

verse [0:00 - 0:49]
G|----|----------------------------|-----------------------------|
D|----|----------------------------|-2-2~---2-2~---2-2~---2-2~---|
A|----|-0-0~---0-0~---0-0~--0-0~---|-----------------------------|
E|----|----------------------------|-----------------------------|
dont play right at the start.
                                                                      x2

G|-------------------------------|-------------------------------|
D|-------------------------------|-0-0~---0-0~---0/7~~~~---------|
A|-2-2~---2-2~---2-2~---2-2~-----|-------------------------------|
E|-------------------------------|-------------------------------|


chorus [0:50 - 1:06]
G|-------------------------------|-------------------------------|
D|-------------------------------|-------------------------------|      x1
A|-2~---0-2~---0-2~---0-2~---2-0~|----0/7~~~~--------------------|
E|-------------------------------|-------------------------------|


G|-------------------------------|
D|---------------777777777-------|      x1
A|-2~---0-2~---0-----------------|
E|-------------------------------|


verse [1:07 - 1:29
G|------------------------------|-------------------------------|
D|------------------------------|-2-2~---2-2~---2-2~---2-2~-----|
A|-0-0~---0-0~---0-0~--0-0~-----|-------------------------------|
E|------------------------------|-------------------------------|
                                                                    x1

G|------------------------------|-------------------------------|
D|------------------------------|-0-0~---0-0~---0/7~~~~---------|
A|-2-2~---2-2~---2-2~---2-2~----|-------------------------------|
E|------------------------------|-------------------------------|


chorus [1:30 - 1:58]
G|-------------------------------|-------------------------------|
D|-------------------------------|-------------------------------|      x2
A|-2~---0-2~---0-2~---0-2~---2-0~|----0/7~~~~--------------------|
E|-------------------------------|-------------------------------|


G|-------------------------------|
D|---------------777777777-~~----|      x1
A|-2~---0-2~---0-----------------|
E|-------------------------------|


bridge [1:59 - 2:22]

G|-----------------------------------------------------------------|
D|---------------------------------0-0-0-2-0-0-0-2-0-0-0-2-0-0-0-2-|      x1
A|-2-2-2-4-2-2-2-4-2-2-2-4-2-2-2-4---------------------------------|
E|-----------------------------------------------------------------|


G|-----------------------------------------------------------------|
D|---------------------------------0-0-0-2-0-0-0-2-0-0-0-2-0~~~~---|      x1
A|-2-2-2-4-2-2-2-4-2-2-2-4-2-2-2-4---------------------------------|
E|-----------------------------------------------------------------|

verse [2:23 - 3:08]
G|------------------------------|-------------------------------|
D|------------------------------|-2-2~---2-2~---2-2~---2-2~-----|
A|-0-0~---0-0~---0-0~--0-0~-----|-------------------------------|
E|------------------------------|-------------------------------|
                                                                    x2

G|------------------------------|-------------------------------|
D|------------------------------|-0-0~---0-0~---0/7~~~~---------|
A|-2-2~---2-2~---2-2~---2-2~----|-------------------------------|
E|------------------------------|-------------------------------|

outro [3:09 - 3:20]
G|-------------------------------||
D|---------------00000000-7~~~~--||     x1
A|-2~---0-2~---0-----------------||
E|-------------------------------||


~ = hold note

please rate this tab. i like to see how much people like it or hate it!
            

comments powered by Disqus
↑ Back to top | Operator Please Bass for Other Song. Lyrics for acoustic guitar and electric guitar. Tablatures and chords are parodies/interpretations of the original songs. You may use it for private study, scholarship, research or language learning purposes only