» » »

Operator Please, Leave It Alone Tabs (ver.2)

Artists:  A B C D E F G H I J K L M N O P Q R S T U V W X Y Z # 

Leave It Alone Tabs (ver.2)

Operator Please Tabs
 Rating:
4/5 (5 votes)
Leave It Alone lessons Tabs too difficult? Try these video lessons and learn fast
1
                Intro taken from Leave It Alone Intro Tab @

Easy song, TONS of fun to play!


After violin riff, this comes in through verse 1 and verse 2.

e|----------------5------------------------------------------------------------|
B|-7-7-5-7-5--775--------------------------------------------------------------|
G|-----------------------------------------------------------------------------|
D|-----------------------------------------------------------------------------|
A|-----------------------------------------------------------------------------|
E|-----------------------------------------------------------------------------|

The chorus has three notes played in this order (listen to the song for timing)
      D    Em    Bm    Em    Bm    Em    D
e|---(5)---7-----2-----7-----2-----7----(5)------------------------------------|
B|----7----8-----3-----8-----3-----8-----7-------------------------------------|
G|----7----9-----4-----9-----4-----9-----7-------------------------------------|
D|----7----9-----4-----9-----4-----9-----7-------------------------------------|
A|----5----7-----2-----7-----2-----7-----5-------------------------------------|
E|-----------------------------------------------------------------------------|


Small Bridge at starting at 1:45:

e|-------------------:|------------------------------------------------------
B|-------------------:|------------------------------------------------------
G|-------------------:|------------------------------------------------------
D|-------------------:|-x2---------------------------------------------------
A|-2-2-2-2-2-2-2-2-0-:|-----2-2-2-2-2-2-2-2-0-2-2-2-2-2-2-2-2-0-5-5-5-5-5-5-5
E|-------------------:|------------------------------------------------------

e|--------------------:||
B|--------------------:||
G|--------------------:|| x2 then to chorus
D|--------------------:||
A|-2-0-2-2-2-2-2-2-(0):||
E|--------------------:||

And then back to the chorus. There's a small solo that I don't quite have time for right 
but from what I can tell it's just sliding around with frets 10, 12, 14, and 17 on the 
string (e). The solo starts on the 14 fret at 2:39.

Have a blast :)
            
Submit corrections

comments powered by Disqus
↑ Back to top | Operator Please Tabs for Leave It Alone. Lyrics for acoustic guitar and electric guitar. 1 Tablatures and chords are parodies/interpretations of the original songs. You may use it for private study, scholarship, research or language learning purposes only